  0
SECTION
  2
HEADER
  9
$ACADVER
  1
AC1015
  9
$ACADMAINTVER
 70
    20
  9
$DWGCODEPAGE
  3
ANSI_1250
  9
$INSBASE
 10
0.0
 20
0.0
 30
0.0
  9
$EXTMIN
 10
-1521.301272342673
 20
-18037.65449480281
 30
-1.999999999998784
  9
$EXTMAX
 10
8678.698727657359
 20
-4017.654494802819
 30
0.0000000000081514
  9
$LIMMIN
 10
0.0
 20
0.0
  9
$LIMMAX
 10
12.0
 20
9.0
  9
$ORTHOMODE
 70
     0
  9
$REGENMODE
 70
     1
  9
$FILLMODE
 70
     1
  9
$QTEXTMODE
 70
     0
  9
$MIRRTEXT
 70
     0
  9
$LTSCALE
 40
75.0
  9
$ATTMODE
 70
     1
  9
$TEXTSIZE
 40
5.0
  9
$TRACEWID
 40
40.0
  9
$TEXTSTYLE
  7
ROMANS
  9
$CLAYER
  8
0
  9
$CELTYPE
  6
BYLAYER
  9
$CECOLOR
 62
   256
  9
$CELTSCALE
 40
4.0
  9
$DISPSILH
 70
     0
  9
$DIMSCALE
 40
1.0
  9
$DIMASZ
 40
15.0
  9
$DIMEXO
 40
43.0
  9
$DIMDLI
 40
24.0
  9
$DIMRND
 40
0.5
  9
$DIMDLE
 40
12.0
  9
$DIMEXE
 40
13.0
  9
$DIMTP
 40
0.0
  9
$DIMTM
 40
0.0
  9
$DIMTXT
 40
30.0
  9
$DIMCEN
 40
0.0
  9
$DIMTSZ
 40
0.0
  9
$DIMTOL
 70
     0
  9
$DIMLIM
 70
     0
  9
$DIMTIH
 70
     0
  9
$DIMTOH
 70
     0
  9
$DIMSE1
 70
     1
  9
$DIMSE2
 70
     1
  9
$DIMTAD
 70
     1
  9
$DIMZIN
 70
     8
  9
$DIMBLK
  1
B-DIM_K
  9
$DIMASO
 70
     1
  9
$DIMSHO
 70
     1
  9
$DIMPOST
  1

  9
$DIMAPOST
  1

  9
$DIMALT
 70
     0
  9
$DIMALTD
 70
     2
  9
$DIMALTF
 40
25.4
  9
$DIMLFAC
 40
1.0
  9
$DIMTOFL
 70
     1
  9
$DIMTVP
 40
1.0
  9
$DIMTIX
 70
     1
  9
$DIMSOXD
 70
     0
  9
$DIMSAH
 70
     0
  9
$DIMBLK1
  1

  9
$DIMBLK2
  1

  9
$DIMSTYLE
  2
100-PR
  9
$DIMCLRD
 70
     7
  9
$DIMCLRE
 70
     1
  9
$DIMCLRT
 70
   140
  9
$DIMTFAC
 40
1.0
  9
$DIMGAP
 40
12.0
  9
$DIMJUST
 70
     0
  9
$DIMSD1
 70
     0
  9
$DIMSD2
 70
     0
  9
$DIMTOLJ
 70
     1
  9
$DIMTZIN
 70
     0
  9
$DIMALTZ
 70
     0
  9
$DIMALTTZ
 70
     0
  9
$DIMUPT
 70
     0
  9
$DIMDEC
 70
     1
  9
$DIMTDEC
 70
     1
  9
$DIMALTU
 70
     2
  9
$DIMALTTD
 70
     2
  9
$DIMTXSTY
  7
ROMANS
  9
$DIMAUNIT
 70
     0
  9
$DIMADEC
 70
     0
  9
$DIMALTRND
 40
0.0
  9
$DIMAZIN
 70
     0
  9
$DIMDSEP
 70
    46
  9
$DIMATFIT
 70
     3
  9
$DIMFRAC
 70
     0
  9
$DIMLDRBLK
  1
Dot
  9
$DIMLUNIT
 70
     2
  9
$DIMLWD
 70
     5
  9
$DIMLWE
 70
    -2
  9
$DIMTMOVE
 70
     2
  9
$LUNITS
 70
     2
  9
$LUPREC
 70
     2
  9
$SKETCHINC
 40
0.1
  9
$FILLETRAD
 40
0.0
  9
$AUNITS
 70
     0
  9
$AUPREC
 70
     1
  9
$MENU
  1
acad
  9
$ELEVATION
 40
0.0
  9
$PELEVATION
 40
0.0
  9
$THICKNESS
 40
0.0
  9
$LIMCHECK
 70
     0
  9
$CHAMFERA
 40
30.0
  9
$CHAMFERB
 40
30.0
  9
$CHAMFERC
 40
0.0
  9
$CHAMFERD
 40
0.0
  9
$SKPOLY
 70
     0
  9
$TDCREATE
 40
2450817.525937848
  9
$TDUCREATE
 40
2450817.442604514
  9
$TDUPDATE
 40
2454959.393456840
  9
$TDUUPDATE
 40
2454959.310123507
  9
$TDINDWG
 40
21.7651116898
  9
$TDUSRTIMER
 40
21.7651116898
  9
$USRTIMER
 70
     1
  9
$ANGBASE
 50
0.0
  9
$ANGDIR
 70
     0
  9
$PDMODE
 70
     3
  9
$PDSIZE
 40
10.0
  9
$PLINEWID
 40
0.0
  9
$SPLFRAME
 70
     0
  9
$SPLINETYPE
 70
     6
  9
$SPLINESEGS
 70
     8
  9
$HANDSEED
  5
350
  9
$SURFTAB1
 70
     6
  9
$SURFTAB2
 70
     6
  9
$SURFTYPE
 70
     6
  9
$SURFU
 70
     6
  9
$SURFV
 70
     6
  9
$UCSBASE
  2

  9
$UCSNAME
  2

  9
$UCSORG
 10
0.0
 20
0.0
 30
0.0
  9
$UCSXDIR
 10
1.0
 20
0.0
 30
0.0
  9
$UCSYDIR
 10
0.0
 20
1.0
 30
0.0
  9
$UCSORTHOREF
  2

  9
$UCSORTHOVIEW
 70
     0
  9
$UCSORGTOP
 10
0.0
 20
0.0
 30
0.0
  9
$UCSORGBOTTOM
 10
0.0
 20
0.0
 30
0.0
  9
$UCSORGLEFT
 10
0.0
 20
0.0
 30
0.0
  9
$UCSORGRIGHT
 10
0.0
 20
0.0
 30
0.0
  9
$UCSORGFRONT
 10
0.0
 20
0.0
 30
0.0
  9
$UCSORGBACK
 10
0.0
 20
0.0
 30
0.0
  9
$PUCSBASE
  2

  9
$PUCSNAME
  2

  9
$PUCSORG
 10
0.0
 20
0.0
 30
0.0
  9
$PUCSXDIR
 10
1.0
 20
0.0
 30
0.0
  9
$PUCSYDIR
 10
0.0
 20
1.0
 30
0.0
  9
$PUCSORTHOREF
  2

  9
$PUCSORTHOVIEW
 70
     0
  9
$PUCSORGTOP
 10
0.0
 20
0.0
 30
0.0
  9
$PUCSORGBOTTOM
 10
0.0
 20
0.0
 30
0.0
  9
$PUCSORGLEFT
 10
0.0
 20
0.0
 30
0.0
  9
$PUCSORGRIGHT
 10
0.0
 20
0.0
 30
0.0
  9
$PUCSORGFRONT
 10
0.0
 20
0.0
 30
0.0
  9
$PUCSORGBACK
 10
0.0
 20
0.0
 30
0.0
  9
$USERI1
 70
     0
  9
$USERI2
 70
     0
  9
$USERI3
 70
     0
  9
$USERI4
 70
     0
  9
$USERI5
 70
     0
  9
$USERR1
 40
0.0
  9
$USERR2
 40
0.0
  9
$USERR3
 40
0.0
  9
$USERR4
 40
0.0
  9
$USERR5
 40
0.0
  9
$WORLDVIEW
 70
     1
  9
$SHADEDGE
 70
     3
  9
$SHADEDIF
 70
    70
  9
$TILEMODE
 70
     1
  9
$MAXACTVP
 70
    16
  9
$PINSBASE
 10
5931.669543547489
 20
-50.0
 30
10705.17123084718
  9
$PLIMCHECK
 70
     0
  9
$PEXTMIN
 10
-0.7963446452747009
 20
-0.8075380466295881
 30
-0.0015258207003583
  9
$PEXTMAX
 10
209.2128431109218
 20
296.2154446811023
 30
0.0000000349246037
  9
$PLIMMIN
 10
-6.805083274841307
 20
-5.027085781097412
  9
$PLIMMAX
 10
203.1682443618775
 20
291.9412369728089
  9
$UNITMODE
 70
     0
  9
$VISRETAIN
 70
     0
  9
$PLINEGEN
 70
     0
  9
$PSLTSCALE
 70
     0
  9
$TREEDEPTH
 70
  3020
  9
$CMLSTYLE
  2
STANDARD
  9
$CMLJUST
 70
     0
  9
$CMLSCALE
 40
1.0
  9
$PROXYGRAPHICS
 70
     1
  9
$MEASUREMENT
 70
     0
  9
$CELWEIGHT
370
    -1
  9
$ENDCAPS
280
     0
  9
$JOINSTYLE
280
     0
  9
$LWDISPLAY
290
     0
  9
$INSUNITS
 70
     0
  9
$HYPERLINKBASE
  1

  9
$STYLESHEET
  1

  9
$XEDIT
290
     1
  9
$CEPSNTYPE
380
     0
  9
$PSTYLEMODE
290
     1
  9
$FINGERPRINTGUID
  2
{3D020A92-B4F0-4348-8325-05B77244780C}
  9
$VERSIONGUID
  2
{33057534-ED77-4CBE-A994-DF7B96CEB1AB}
  9
$EXTNAMES
290
     1
  9
$PSVPSCALE
 40
0.0
  9
$OLESTARTUP
290
     0
  0
ENDSEC
  0
SECTION
  2
CLASSES
  0
CLASS
  1
DICTIONARYVAR
  2
AcDbDictionaryVar
  3
ObjectDBX Classes
 90
        0
280
     0
281
     0
  0
CLASS
  1
ACDBDICTIONARYWDFLT
  2
AcDbDictionaryWithDefault
  3
ObjectDBX Classes
 90
        0
280
     0
281
     0
  0
CLASS
  1
ACDBPLACEHOLDER
  2
AcDbPlaceHolder
  3
ObjectDBX Classes
 90
        0
280
     0
281
     0
  0
CLASS
  1
LAYOUT
  2
AcDbLayout
  3
ObjectDBX Classes
 90
        0
280
     0
281
     0
  0
CLASS
  1
AEC_VARS_DWG_SETUP
  2
AecDbVarsDwgSetup
  3
AecBase50|Product Desc: Autodesk Architectural Desktop 2007 |Company: Autodesk,Inc. |WEB Address: www.autodesk.com
 90
    32897
280
     0
281
     0
  0
CLASS
  1
AEC_DISP_REP_CONFIG
  2
AecDbDispRepConfig
  3
AecBase50|Product Desc: Autodesk Architectural Desktop 2007 |Company: Autodesk,Inc. |WEB Address: www.autodesk.com
 90
    32897
280
     0
281
     0
  0
CLASS
  1
AEC_DISP_REP_SET
  2
AecDbDispRepSet
  3
AecBase50|Product Desc: Autodesk Architectural Desktop 2007 |Company: Autodesk,Inc. |WEB Address: www.autodesk.com
 90
    32897
280
     0
281
     0
  0
CLASS
  1
AEC_DISP_REP_2D_SECTION
  2
AecDbDispRep2dSection
  3
AecBase50|Product Desc: Autodesk Architectural Desktop 2007 |Company: Autodesk,Inc. |WEB Address: www.autodesk.com
 90
    32897
280
     0
281
     0
  0
CLASS
  1
AEC_DISP_REP_ANCHOR_BUB_TO_GRID
  2
AecDbDispRepAnchorBubToGrid
  3
AecStructureBase50|Product Desc: Autodesk Architectural Desktop 2007 |Company: Autodesk,Inc. |WEB Address: www.autodesk.com
 90
    32897
280
     0
281
     0
  0
CLASS
  1
AEC_DISP_REP_ANCHOR_BUB_TO_GRID_MODEL
  2
AecDbDispRepAnchorBubToGridMdl
  3
AecStructureBase50|Product Desc: Autodesk Architectural Desktop 2007 |Company: Autodesk,Inc. |WEB Address: www.autodesk.com
 90
    32897
280
     0
281
     0
  0
CLASS
  1
AEC_DISP_REP_ANCHOR_ENT_TO_NODE
  2
AecDbDispRepAnchorEntToNode
  3
AecBaseEx50|Product Desc: Autodesk Architectural Desktop 2007 |Company: Autodesk,Inc. |WEB Address: www.autodesk.com
 90
    32897
280
     0
281
     0
  0
CLASS
  1
AEC_DISP_REP_ANCHOR_TAG_TO_ENT
  2
AecDbDispRepAnchorTagToEnt
  3
AecScheduleData50|Product Desc: Autodesk Architectural Desktop 2007 |Company: Autodesk,Inc. |WEB Address: www.autodesk.com
 90
    32897
280
     0
281
     0
  0
CLASS
  1
AEC_DISP_REP_AREA
  2
AecDbDispRepArea
  3
AecAreaCalculationBase50|Product Desc: Autodesk Architectural Desktop 2007 |Company: Autodesk,Inc. |WEB Address: www.autodesk.com
 90
    32897
280
     0
281
     0
  0
CLASS
  1
AEC_DISP_REP_AREA_DECOMPOSED
  2
AecDbDispRepAreaDecomposed
  3
AecAreaCalculationBase50|Product Desc: Autodesk Architectural Desktop 2007 |Company: Autodesk,Inc. |WEB Address: www.autodesk.com
 90
    32897
280
     0
281
     0
  0
CLASS
  1
AEC_DISP_REP_AREAGROUP
  2
AecDbDispRepAreaGroup
  3
AecAreaCalculationBase50|Product Desc: Autodesk Architectural Desktop 2007 |Company: Autodesk,Inc. |WEB Address: www.autodesk.com
 90
    32897
280
     0
281
     0
  0
CLASS
  1
AEC_DISP_REP_BDG_ELEVLINE_MODEL
  2
AecDbDispRepBdgElevLineModel
  3
AecArchBase50|Product Desc: Autodesk Architectural Desktop 2007 |Company: Autodesk,Inc. |WEB Address: www.autodesk.com
 90
    32897
280
     0
281
     0
  0
CLASS
  1
AEC_DISP_REP_BDG_SECTIONLINE_PLAN
  2
AecDbDispRepBdgElevLinePlan
  3
AecArchBase50|Product Desc: Autodesk Architectural Desktop 2007 |Company: Autodesk,Inc. |WEB Address: www.autodesk.com
 90
    32897
280
     0
281
     0
  0
CLASS
  1
AEC_DISP_REP_BDG_SECTIONLINE_MODEL
  2
AecDbDispRepBdgSectionLineModel
  3
AecArchBase50|Product Desc: Autodesk Architectural Desktop 2007 |Company: Autodesk,Inc. |WEB Address: www.autodesk.com
 90
    32897
280
     0
281
     0
  0
CLASS
  1
AEC_DISP_REP_BDG_SECTIONLINE_PLAN
  2
AecDbDispRepBdgSectionLinePlan
  3
AecArchBase50|Product Desc: Autodesk Architectural Desktop 2007 |Company: Autodesk,Inc. |WEB Address: www.autodesk.com
 90
    32897
280
     0
281
     0
  0
CLASS
  1
AEC_DISP_REP_BDG_SECTION_SUBDIV
  2
AecDbDispRepBdgSectionSubDiv
  3
AecArchBase50|Product Desc: Autodesk Architectural Desktop 2007 |Company: Autodesk,Inc. |WEB Address: www.autodesk.com
 90
    32897
280
     0
281
     0
  0
CLASS
  1
AEC_DISP_REP_CAMERA
  2
AecDbDispRepCamera
  3
AecBase50|Product Desc: Autodesk Architectural Desktop 2007 |Company: Autodesk,Inc. |WEB Address: www.autodesk.com
 90
    32897
280
     0
281
     0
  0
CLASS
  1
AEC_DISP_REP_CEILING_GRID
  2
AecDbDispRepCeilingGrid
  3
AecArchBase50|Product Desc: Autodesk Architectural Desktop 2007 |Company: Autodesk,Inc. |WEB Address: www.autodesk.com
 90
    33661
280
     0
281
     0
  0
CLASS
  1
AEC_DISP_REP_CEILING_GRID_MODEL
  2
AecDbDispRepCeilingGridModel
  3
AecArchBase50|Product Desc: Autodesk Architectural Desktop 2007 |Company: Autodesk,Inc. |WEB Address: www.autodesk.com
 90
    32897
280
     0
281
     0
  0
CLASS
  1
AEC_DISP_REP_CEILING_GRID_RCP
  2
AecDbDispRepCeilingGridRcp
  3
AecArchBase50|Product Desc: Autodesk Architectural Desktop 2007 |Company: Autodesk,Inc. |WEB Address: www.autodesk.com
 90
    32897
280
     0
281
     0
  0
CLASS
  1
AEC_DISP_REP_CLIP_VOLUME_MODEL
  2
AecDbDispRepClipVolModel
  3
AecBase50|Product Desc: Autodesk Architectural Desktop 2007 |Company: Autodesk,Inc. |WEB Address: www.autodesk.com
 90
    32897
280
     0
281
     0
  0
CLASS
  1
AEC_DISP_REP_CLIP_VOLUME_PLAN
  2
AecDbDispRepClipVolPlan
  3
AecBase50|Product Desc: Autodesk Architectural Desktop 2007 |Company: Autodesk,Inc. |WEB Address: www.autodesk.com
 90
    32897
280
     0
281
     0
  0
CLASS
  1
AEC_DISP_REP_CLIP_VOLUME_RESULT_SUBDIV
  2
AecDbDispRepClipVolResSubDiv
  3
AecBase50|Product Desc: Autodesk Architectural Desktop 2007 |Company: Autodesk,Inc. |WEB Address: www.autodesk.com
 90
    32897
280
     0
281
     0
  0
CLASS
  1
AEC_DISP_REP_CLIP_VOLUME_RESULT
  2
AecDbDispRepClipVolResult
  3
AecBase50|Product Desc: Autodesk Architectural Desktop 2007 |Company: Autodesk,Inc. |WEB Address: www.autodesk.com
 90
    32897
280
     0
281
     0
  0
CLASS
  1
AEC_DISP_REP_COLUMN_GRID
  2
AecDbDispRepColumnGrid
  3
AecStructureBase50|Product Desc: Autodesk Architectural Desktop 2007 |Company: Autodesk,Inc. |WEB Address: www.autodesk.com
 90
    32897
280
     0
281
     0
  0
CLASS
  1
AEC_DISP_REP_COLUMN_GRID_MODEL
  2
AecDbDispRepColumnGridModel
  3
AecStructureBase50|Product Desc: Autodesk Architectural Desktop 2007 |Company: Autodesk,Inc. |WEB Address: www.autodesk.com
 90
    32897
280
     0
281
     0
  0
CLASS
  1
AEC_DISP_REP_CURTAIN_WALL_LAYOUT_MODEL
  2
AecDbDispRepCurtainWallLayoutModel
  3
AecArchBase50|Product Desc: Autodesk Architectural Desktop 2007 |Company: Autodesk,Inc. |WEB Address: www.autodesk.com
 90
    32897
280
     0
281
     0
  0
CLASS
  1
AEC_DISP_REP_CURTAIN_WALL_LAYOUT_PLAN
  2
AecDbDispRepCurtainWallLayoutPlan
  3
AecArchBase50|Product Desc: Autodesk Architectural Desktop 2007 |Company: Autodesk,Inc. |WEB Address: www.autodesk.com
 90
    32897
280
     0
281
     0
  0
CLASS
  1
AEC_DISP_REP_CURTAIN_WALL_UNIT_MODEL
  2
AecDbDispRepCurtainWallUnitModel
  3
AecArchBase50|Product Desc: Autodesk Architectural Desktop 2007 |Company: Autodesk,Inc. |WEB Address: www.autodesk.com
 90
    32897
280
     0
281
     0
  0
CLASS
  1
AEC_DISP_REP_CURTAIN_WALL_UNIT_PLAN
  2
AecDbDispRepCurtainWallUnitPlan
  3
AecArchBase50|Product Desc: Autodesk Architectural Desktop 2007 |Company: Autodesk,Inc. |WEB Address: www.autodesk.com
 90
    32897
280
     0
281
     0
  0
CLASS
  1
AEC_DB_DISP_REP_DIM_GROUP_PLAN
  2
AecDbDispRepDimGroupPlan
  3
AecArchDACHBase50|Product Desc: Autodesk Architectural Desktop 2007 |Company: Autodesk,Inc. |WEB Address: www.autodesk.com
 90
    32897
280
     0
281
     0
  0
CLASS
  1
AEC_DISP_REP_DOOR_MODEL
  2
AecDbDispRepDoorModel
  3
AecArchBase50|Product Desc: Autodesk Architectural Desktop 2007 |Company: Autodesk,Inc. |WEB Address: www.autodesk.com
 90
    32897
280
     0
281
     0
  0
CLASS
  1
AEC_DISP_REP_DOOR_NOMINAL
  2
AecDbDispRepDoorNominal
  3
AecArchBase50|Product Desc: Autodesk Architectural Desktop 2007 |Company: Autodesk,Inc. |WEB Address: www.autodesk.com
 90
    32897
280
     0
281
     0
  0
CLASS
  1
AEC_DISP_REP_DOOR_PLAN
  2
AecDbDispRepDoorPlan
  3
AecArchBase50|Product Desc: Autodesk Architectural Desktop 2007 |Company: Autodesk,Inc. |WEB Address: www.autodesk.com
 90
    32897
280
     0
281
     0
  0
CLASS
  1
AEC_DISP_REP_EDITINPLACEPROFILE
  2
AecDbDispRepEditInPlaceProfile
  3
AecBase50|Product Desc: Autodesk Architectural Desktop 2007 |Company: Autodesk,Inc. |WEB Address: www.autodesk.com
 90
    32897
280
     0
281
     0
  0
CLASS
  1
AEC_DISP_REP_ENT_REF
  2
AecDbDispRepEntRef
  3
AecBase50|Product Desc: Autodesk Architectural Desktop 2007 |Company: Autodesk,Inc. |WEB Address: www.autodesk.com
 90
    32897
280
     0
281
     0
  0
CLASS
  1
AEC_DISP_REP_LAYOUT_CURVE
  2
AecDbDispRepLayoutCurve
  3
AecBase50|Product Desc: Autodesk Architectural Desktop 2007 |Company: Autodesk,Inc. |WEB Address: www.autodesk.com
 90
    32897
280
     0
281
     0
  0
CLASS
  1
AEC_DISP_REP_LAYOUT_GRID2D
  2
AecDbDispRepLayoutGrid2d
  3
AecBase50|Product Desc: Autodesk Architectural Desktop 2007 |Company: Autodesk,Inc. |WEB Address: www.autodesk.com
 90
    32897
280
     0
281
     0
  0
CLASS
  1
AEC_DISP_REP_LAYOUT_GRID3D
  2
AecDbDispRepLayoutGrid3d
  3
AecBase50|Product Desc: Autodesk Architectural Desktop 2007 |Company: Autodesk,Inc. |WEB Address: www.autodesk.com
 90
    32897
280
     0
281
     0
  0
CLASS
  1
AEC_DISP_REP_MASKBLOCK_REF
  2
AecDbDispRepMaskBlockRef
  3
AecBase50|Product Desc: Autodesk Architectural Desktop 2007 |Company: Autodesk,Inc. |WEB Address: www.autodesk.com
 90
    32897
280
     0
281
     0
  0
CLASS
  1
AEC_DISP_REP_MASKBLOCK_REF_RCP
  2
AecDbDispRepMaskBlockRefRcp
  3
AecArchBase50|Product Desc: Autodesk Architectural Desktop 2007 |Company: Autodesk,Inc. |WEB Address: www.autodesk.com
 90
    32897
280
     0
281
     0
  0
CLASS
  1
AEC_DISP_REP_MASS_ELEM_MODEL
  2
AecDbDispRepMassElemModel
  3
AecBaseEx50|Product Desc: Autodesk Architectural Desktop 2007 |Company: Autodesk,Inc. |WEB Address: www.autodesk.com
 90
    32897
280
     0
281
     0
  0
CLASS
  1
AEC_DISP_REP_MASS_ELEM_SCHEM
  2
AecDbDispRepMassElemSchem
  3
AecBaseEx50|Product Desc: Autodesk Architectural Desktop 2007 |Company: Autodesk,Inc. |WEB Address: www.autodesk.com
 90
    32897
280
     0
281
     0
  0
CLASS
  1
AEC_DISP_REP_MASS_GROUP_MODEL
  2
AecDbDispRepMassGroupModel
  3
AecBaseEx50|Product Desc: Autodesk Architectural Desktop 2007 |Company: Autodesk,Inc. |WEB Address: www.autodesk.com
 90
    32897
280
     0
281
     0
  0
CLASS
  1
AEC_DISP_REP_MASS_GROUP_PLAN
  2
AecDbDispRepMassGroupPlan
  3
AecBaseEx50|Product Desc: Autodesk Architectural Desktop 2007 |Company: Autodesk,Inc. |WEB Address: www.autodesk.com
 90
    32897
280
     0
281
     0
  0
CLASS
  1
AEC_DISP_REP_MATERIAL
  2
AecDbDispRepMaterial
  3
AecBase50|Product Desc: Autodesk Architectural Desktop 2007 |Company: Autodesk,Inc. |WEB Address: www.autodesk.com
 90
    32897
280
     0
281
     0
  0
CLASS
  1
AEC_DISP_REP_MVBLOCK_REF
  2
AecDbDispRepMvBlockRef
  3
AecBase50|Product Desc: Autodesk Architectural Desktop 2007 |Company: Autodesk,Inc. |WEB Address: www.autodesk.com
 90
    32897
280
     0
281
     0
  0
CLASS
  1
AEC_DISP_REP_MVBLOCK_REF_MODEL
  2
AecDbDispRepMvBlockRefModel
  3
AecBase50|Product Desc: Autodesk Architectural Desktop 2007 |Company: Autodesk,Inc. |WEB Address: www.autodesk.com
 90
    32897
280
     0
281
     0
  0
CLASS
  1
AEC_DISP_REP_OPENING
  2
AecDbDispRepOpening
  3
AecArchBase50|Product Desc: Autodesk Architectural Desktop 2007 |Company: Autodesk,Inc. |WEB Address: www.autodesk.com
 90
    32897
280
     0
281
     0
  0
CLASS
  1
AEC_DISP_REP_OPENING_MODEL
  2
AecDbDispRepOpeningModel
  3
AecArchBase50|Product Desc: Autodesk Architectural Desktop 2007 |Company: Autodesk,Inc. |WEB Address: www.autodesk.com
 90
    32897
280
     0
281
     0
  0
CLASS
  1
AEC_DISP_REP_POLYGON_MODEL
  2
AecDbDispRepPolygonModel
  3
AecBaseEx50|Product Desc: Autodesk Architectural Desktop 2007 |Company: Autodesk,Inc. |WEB Address: www.autodesk.com
 90
    32897
280
     0
281
     0
  0
CLASS
  1
AEC_DISP_REP_RAILING_MODEL
  2
AecDbDispRepRailingModel
  3
AecArchBase50|Product Desc: Autodesk Architectural Desktop 2007 |Company: Autodesk,Inc. |WEB Address: www.autodesk.com
 90
    32897
280
     0
281
     0
  0
CLASS
  1
AEC_DISP_REP_RAILING_PLAN
  2
AecDbDispRepRailingPlan
  3
AecArchBase50|Product Desc: Autodesk Architectural Desktop 2007 |Company: Autodesk,Inc. |WEB Address: www.autodesk.com
 90
    32897
280
     0
281
     0
  0
CLASS
  1
AEC_DISP_REP_ROOF_MODEL
  2
AecDbDispRepRoofModel
  3
AecArchBase50|Product Desc: Autodesk Architectural Desktop 2007 |Company: Autodesk,Inc. |WEB Address: www.autodesk.com
 90
    32897
280
     0
281
     0
  0
CLASS
  1
AEC_DISP_REP_ROOF_PLAN
  2
AecDbDispRepRoofPlan
  3
AecArchBase50|Product Desc: Autodesk Architectural Desktop 2007 |Company: Autodesk,Inc. |WEB Address: www.autodesk.com
 90
    32897
280
     0
281
     0
  0
CLASS
  1
AEC_DISP_REP_ROOFSLAB_MODEL
  2
AecDbDispRepRoofSlabModel
  3
AecArchBase50|Product Desc: Autodesk Architectural Desktop 2007 |Company: Autodesk,Inc. |WEB Address: www.autodesk.com
 90
    32897
280
     0
281
     0
  0
CLASS
  1
AEC_DISP_REP_ROOFSLAB_PLAN
  2
AecDbDispRepRoofSlabPlan
  3
AecArchBase50|Product Desc: Autodesk Architectural Desktop 2007 |Company: Autodesk,Inc. |WEB Address: www.autodesk.com
 90
    32897
280
     0
281
     0
  0
CLASS
  1
AEC_DISP_REP_SCHEDULE_TABLE
  2
AecDbDispRepScheduleTable
  3
AecSchedule50|Product Desc: Autodesk Architectural Desktop 2007 |Company: Autodesk,Inc. |WEB Address: www.autodesk.com
 90
    32897
280
     0
281
     0
  0
CLASS
  1
AEC_DISP_REP_SLAB_MODEL
  2
AecDbDispRepSlabModel
  3
AecArchBase50|Product Desc: Autodesk Architectural Desktop 2007 |Company: Autodesk,Inc. |WEB Address: www.autodesk.com
 90
    32897
280
     0
281
     0
  0
CLASS
  1
AEC_DISP_REP_SLAB_PLAN
  2
AecDbDispRepSlabPlan
  3
AecArchBase50|Product Desc: Autodesk Architectural Desktop 2007 |Company: Autodesk,Inc. |WEB Address: www.autodesk.com
 90
    32897
280
     0
281
     0
  0
CLASS
  1
AEC_DISP_REP_SLICE
  2
AecDbDispRepSlice
  3
AecBase50|Product Desc: Autodesk Architectural Desktop 2007 |Company: Autodesk,Inc. |WEB Address: www.autodesk.com
 90
    32897
280
     0
281
     0
  0
CLASS
  1
AEC_DISP_REP_SPACE_BOUNDARY_MODEL
  2
AecDbDispRepSpaceBoundaryModel
  3
AecArchBase50|Product Desc: Autodesk Architectural Desktop 2007 |Company: Autodesk,Inc. |WEB Address: www.autodesk.com
 90
    32897
280
     0
281
     0
  0
CLASS
  1
AEC_DISP_REP_SPACE_BOUNDARY_PLAN
  2
AecDbDispRepSpaceBoundaryPlan
  3
AecArchBase50|Product Desc: Autodesk Architectural Desktop 2007 |Company: Autodesk,Inc. |WEB Address: www.autodesk.com
 90
    32897
280
     0
281
     0
  0
CLASS
  1
AEC_DISP_REP_SPACE_BOUNDARY_SCHEM
  2
AecDbDispRepSpaceBoundarySketch
  3
AecArchBase50|Product Desc: Autodesk Architectural Desktop 2007 |Company: Autodesk,Inc. |WEB Address: www.autodesk.com
 90
    32897
280
     0
281
     0
  0
CLASS
  1
AEC_DISP_REP_SPACE_MODEL
  2
AecDbDispRepSpaceModel
  3
AecArchBase50|Product Desc: Autodesk Architectural Desktop 2007 |Company: Autodesk,Inc. |WEB Address: www.autodesk.com
 90
    32897
280
     0
281
     0
  0
CLASS
  1
AEC_DISP_REP_SPACE_PLAN
  2
AecDbDispRepSpacePlan
  3
AecArchBase50|Product Desc: Autodesk Architectural Desktop 2007 |Company: Autodesk,Inc. |WEB Address: www.autodesk.com
 90
    32897
280
     0
281
     0
  0
CLASS
  1
AEC_DISP_REP_STAIR_MODEL
  2
AecDbDispRepStairModel
  3
AecArchBase50|Product Desc: Autodesk Architectural Desktop 2007 |Company: Autodesk,Inc. |WEB Address: www.autodesk.com
 90
    32897
280
     0
281
     0
  0
CLASS
  1
AEC_DISP_REP_STAIR_PLAN
  2
AecDbDispRepStairPlan
  3
AecArchBase50|Product Desc: Autodesk Architectural Desktop 2007 |Company: Autodesk,Inc. |WEB Address: www.autodesk.com
 90
    32897
280
     0
281
     0
  0
CLASS
  1
AEC_DISP_REP_WALL_GRAPH
  2
AecDbDispRepWallGraph
  3
AecArchBase50|Product Desc: Autodesk Architectural Desktop 2007 |Company: Autodesk,Inc. |WEB Address: www.autodesk.com
 90
    32897
280
     0
281
     0
  0
CLASS
  1
AEC_DISP_REP_WALL_MODEL
  2
AecDbDispRepWallModel
  3
AecArchBase50|Product Desc: Autodesk Architectural Desktop 2007 |Company: Autodesk,Inc. |WEB Address: www.autodesk.com
 90
    32897
280
     0
281
     0
  0
CLASS
  1
AEC_DISP_REP_WALL_PLAN
  2
AecDbDispRepWallPlan
  3
AecArchBase50|Product Desc: Autodesk Architectural Desktop 2007 |Company: Autodesk,Inc. |WEB Address: www.autodesk.com
 90
    32897
280
     0
281
     0
  0
CLASS
  1
AEC_DISP_REP_WALL_SCHEM
  2
AecDbDispRepWallSchem
  3
AecArchBase50|Product Desc: Autodesk Architectural Desktop 2007 |Company: Autodesk,Inc. |WEB Address: www.autodesk.com
 90
    32897
280
     0
281
     0
  0
CLASS
  1
AEC_DISP_REP_WINDOW_ASSEMBLY_MODEL
  2
AecDbDispRepWindowAssemblyModel
  3
AecArchBase50|Product Desc: Autodesk Architectural Desktop 2007 |Company: Autodesk,Inc. |WEB Address: www.autodesk.com
 90
    32897
280
     0
281
     0
  0
CLASS
  1
AEC_DISP_REP_WINDOW_ASSEMBLY_PLAN
  2
AecDbDispRepWindowAssemblyPlan
  3
AecArchBase50|Product Desc: Autodesk Architectural Desktop 2007 |Company: Autodesk,Inc. |WEB Address: www.autodesk.com
 90
    32897
280
     0
281
     0
  0
CLASS
  1
AEC_AECDBDISPREPWINDOWASSEMBLYPLAN100
  2
AecDbDispRepWindowAssemblyPlan100
  3
AecArchDACHBase50|Product Desc: Autodesk Architectural Desktop 2007 |Company: Autodesk,Inc. |WEB Address: www.autodesk.com
 90
    32897
280
     0
281
     0
  0
CLASS
  1
AEC_DISP_REP_WINDOW_MODEL
  2
AecDbDispRepWindowModel
  3
AecArchBase50|Product Desc: Autodesk Architectural Desktop 2007 |Company: Autodesk,Inc. |WEB Address: www.autodesk.com
 90
    32897
280
     0
281
     0
  0
CLASS
  1
AEC_DISP_REP_WINDOW_NOMINAL
  2
AecDbDispRepWindowNominal
  3
AecArchBase50|Product Desc: Autodesk Architectural Desktop 2007 |Company: Autodesk,Inc. |WEB Address: www.autodesk.com
 90
    32897
280
     0
281
     0
  0
CLASS
  1
AEC_DISP_REP_WINDOW_PLAN
  2
AecDbDispRepWindowPlan
  3
AecArchBase50|Product Desc: Autodesk Architectural Desktop 2007 |Company: Autodesk,Inc. |WEB Address: www.autodesk.com
 90
    32897
280
     0
281
     0
  0
CLASS
  1
AECS_DISP_REP_MEMBER_LOGICAL
  2
AecsDbDispRepMemberLogical
  3
AecStructureBase50|Product Desc: Autodesk Architectural Desktop 2007 |Company: Autodesk,Inc. |WEB Address: www.autodesk.com
 90
    32897
280
     0
281
     0
  0
CLASS
  1
AECS_DISP_REP_MEMBER_MODEL_DESIGN
  2
AecsDbDispRepMemberModelDesign
  3
AecStructureBase50|Product Desc: Autodesk Architectural Desktop 2007 |Company: Autodesk,Inc. |WEB Address: www.autodesk.com
 90
    32897
280
     0
281
     0
  0
CLASS
  1
AECS_DISP_REP_MEMBER_PLAN_DESIGN
  2
AecsDbDispRepMemberPlanDesign
  3
AecStructureBase50|Product Desc: Autodesk Architectural Desktop 2007 |Company: Autodesk,Inc. |WEB Address: www.autodesk.com
 90
    32897
280
     0
281
     0
  0
CLASS
  1
AEC_DISP_PROPS_ENT
  2
AecDbDispPropsEnt
  3
AecBase50|Product Desc: Autodesk Architectural Desktop 2007 |Company: Autodesk,Inc. |WEB Address: www.autodesk.com
 90
    32897
280
     0
281
     0
  0
CLASS
  1
AEC_DISP_PROPS_CLIP_VOLUME
  2
AecDbDispPropsClipVol
  3
AecBase50|Product Desc: Autodesk Architectural Desktop 2007 |Company: Autodesk,Inc. |WEB Address: www.autodesk.com
 90
    32897
280
     0
281
     0
  0
CLASS
  1
AEC_DISP_PROPS_SLICE
  2
AecDbDispPropsSlice
  3
AecBase50|Product Desc: Autodesk Architectural Desktop 2007 |Company: Autodesk,Inc. |WEB Address: www.autodesk.com
 90
    32897
280
     0
281
     0
  0
CLASS
  1
AEC_DISP_PROPS_ROOFSLAB_PLAN
  2
AecDbDispPropsRoofSlabPlan
  3
AecArchBase50|Product Desc: Autodesk Architectural Desktop 2007 |Company: Autodesk,Inc. |WEB Address: www.autodesk.com
 90
    32897
280
     0
281
     0
  0
CLASS
  1
AEC_DISP_PROPS_GRID_ASSEMBLY_MODEL
  2
AecDbDispPropsGridAssemblyModel
  3
AecArchBase50|Product Desc: Autodesk Architectural Desktop 2007 |Company: Autodesk,Inc. |WEB Address: www.autodesk.com
 90
    32897
280
     0
281
     0
  0
CLASS
  1
AEC_DISP_PROPS_ROOF
  2
AecDbDispPropsRoof
  3
AecArchBase50|Product Desc: Autodesk Architectural Desktop 2007 |Company: Autodesk,Inc. |WEB Address: www.autodesk.com
 90
    32897
280
     0
281
     0
  0
CLASS
  1
AEC_DISP_PROPS_SPACE_MODEL
  2
AecDbDispPropsSpaceModel
  3
AecArchBase50|Product Desc: Autodesk Architectural Desktop 2007 |Company: Autodesk,Inc. |WEB Address: www.autodesk.com
 90
    32897
280
     0
281
     0
  0
CLASS
  1
AEC_DISP_PROPS_EDITINPLACEPROFILE_MODEL
  2
AecDbDispPropsEditInPlaceProfile
  3
AecBase50|Product Desc: Autodesk Architectural Desktop 2007 |Company: Autodesk,Inc. |WEB Address: www.autodesk.com
 90
    32897
280
     0
281
     0
  0
CLASS
  1
AEC_DISP_PROPS_DOOR
  2
AecDbDispPropsDoor
  3
AecArchBase50|Product Desc: Autodesk Architectural Desktop 2007 |Company: Autodesk,Inc. |WEB Address: www.autodesk.com
 90
    32897
280
     0
281
     0
  0
CLASS
  1
AEC_DISP_PROPS_MASKBLOCK
  2
AecDbDispPropsMaskBlock
  3
AecBase50|Product Desc: Autodesk Architectural Desktop 2007 |Company: Autodesk,Inc. |WEB Address: www.autodesk.com
 90
    32897
280
     0
281
     0
  0
CLASS
  1
AEC_DISP_PROPS_SPACE_PLAN
  2
AecDbDispPropsSpacePlan
  3
AecArchBase50|Product Desc: Autodesk Architectural Desktop 2007 |Company: Autodesk,Inc. |WEB Address: www.autodesk.com
 90
    32897
280
     0
281
     0
  0
CLASS
  1
AEC_DISP_PROPS_RAILING_PLAN
  2
AecDbDispPropsRailingPlan
  3
AecArchBase50|Product Desc: Autodesk Architectural Desktop 2007 |Company: Autodesk,Inc. |WEB Address: www.autodesk.com
 90
    32897
280
     0
281
     0
  0
CLASS
  1
AEC_DISP_PROPS_LAYOUT_GRID2D
  2
AecDbDispPropsLayoutGrid2d
  3
AecBase50|Product Desc: Autodesk Architectural Desktop 2007 |Company: Autodesk,Inc. |WEB Address: www.autodesk.com
 90
    32897
280
     0
281
     0
  0
CLASS
  1
AEC_DISP_PROPS_CLIP_VOLUME_RESULT
  2
AecDbDispPropsClipVolResSubDiv
  3
AecBase50|Product Desc: Autodesk Architectural Desktop 2007 |Company: Autodesk,Inc. |WEB Address: www.autodesk.com
 90
    32897
280
     0
281
     0
  0
CLASS
  1
AEC_DISP_PROPS_STAIR_MODEL
  2
AecDbDispPropsStairModel
  3
AecArchBase50|Product Desc: Autodesk Architectural Desktop 2007 |Company: Autodesk,Inc. |WEB Address: www.autodesk.com
 90
    32897
280
     0
281
     0
  0
CLASS
  1
AEC_DISP_PROPS_LAYOUT_CURVE
  2
AecDbDispPropsLayoutCurve
  3
AecBase50|Product Desc: Autodesk Architectural Desktop 2007 |Company: Autodesk,Inc. |WEB Address: www.autodesk.com
 90
    32897
280
     0
281
     0
  0
CLASS
  1
AEC_DISP_PROPS_POLYGON_MODEL
  2
AecDbDispPropsPolygonModel
  3
AecBaseEx50|Product Desc: Autodesk Architectural Desktop 2007 |Company: Autodesk,Inc. |WEB Address: www.autodesk.com
 90
    32897
280
     0
281
     0
  0
CLASS
  1
AEC_DISP_PROPS_MASS_GROUP
  2
AecDbDispPropsMassGroup
  3
AecBaseEx50|Product Desc: Autodesk Architectural Desktop 2007 |Company: Autodesk,Inc. |WEB Address: www.autodesk.com
 90
    32897
280
     0
281
     0
  0
CLASS
  1
AEC_DISP_PROPS_STAIR_PLAN
  2
AecDbDispPropsStairPlan
  3
AecArchBase50|Product Desc: Autodesk Architectural Desktop 2007 |Company: Autodesk,Inc. |WEB Address: www.autodesk.com
 90
    32897
280
     0
281
     0
  0
CLASS
  1
AEC_DISP_PROPS_OPENING
  2
AecDbDispPropsOpening
  3
AecArchBase50|Product Desc: Autodesk Architectural Desktop 2007 |Company: Autodesk,Inc. |WEB Address: www.autodesk.com
 90
    32897
280
     0
281
     0
  0
CLASS
  1
AEC_DISP_PROPS_WALL_GRAPH
  2
AecDbDispPropsWallGraph
  3
AecArchBase50|Product Desc: Autodesk Architectural Desktop 2007 |Company: Autodesk,Inc. |WEB Address: www.autodesk.com
 90
    32897
280
     0
281
     0
  0
CLASS
  1
AEC_DISP_PROPS_DOOR_NOMINAL
  2
AecDbDispPropsDoorNominal
  3
AecArchBase50|Product Desc: Autodesk Architectural Desktop 2007 |Company: Autodesk,Inc. |WEB Address: www.autodesk.com
 90
    32897
280
     0
281
     0
  0
CLASS
  1
AEC_DISP_PROPS_SLAB
  2
AecDbDispPropsSlab
  3
AecArchBase50|Product Desc: Autodesk Architectural Desktop 2007 |Company: Autodesk,Inc. |WEB Address: www.autodesk.com
 90
    32897
280
     0
281
     0
  0
CLASS
  1
AEC_DISP_PROPS_WALL_MODEL
  2
AecDbDispPropsWallModel
  3
AecArchBase50|Product Desc: Autodesk Architectural Desktop 2007 |Company: Autodesk,Inc. |WEB Address: www.autodesk.com
 90
    32897
280
     0
281
     0
  0
CLASS
  1
AEC_DISP_PROPS_MATERIAL
  2
AecDbDispPropsMaterial
  3
AecBase50|Product Desc: Autodesk Architectural Desktop 2007 |Company: Autodesk,Inc. |WEB Address: www.autodesk.com
 90
    32897
280
     0
281
     0
  0
CLASS
  1
AEC_DISP_PROPS_WINDOW
  2
AecDbDispPropsWindow
  3
AecArchBase50|Product Desc: Autodesk Architectural Desktop 2007 |Company: Autodesk,Inc. |WEB Address: www.autodesk.com
 90
    32897
280
     0
281
     0
  0
CLASS
  1
AEC_DISP_PROPS_LAYOUT_GRID3D
  2
AecDbDispPropsLayoutGrid3d
  3
AecBase50|Product Desc: Autodesk Architectural Desktop 2007 |Company: Autodesk,Inc. |WEB Address: www.autodesk.com
 90
    32897
280
     0
281
     0
  0
CLASS
  1
AEC_DISP_PROPS_GRID_ASSEMBLY_PLAN
  2
AecDbDispPropsGridAssemblyPlan
  3
AecArchBase50|Product Desc: Autodesk Architectural Desktop 2007 |Company: Autodesk,Inc. |WEB Address: www.autodesk.com
 90
    32897
280
     0
281
     0
  0
CLASS
  1
AEC_DISP_PROPS_WALL_SCHEM
  2
AecDbDispPropsWallSchem
  3
AecArchBase50|Product Desc: Autodesk Architectural Desktop 2007 |Company: Autodesk,Inc. |WEB Address: www.autodesk.com
 90
    32897
280
     0
281
     0
  0
CLASS
  1
AEC_DISP_PROPS_WALL_PLAN
  2
AecDbDispPropsWallPlan
  3
AecArchBase50|Product Desc: Autodesk Architectural Desktop 2007 |Company: Autodesk,Inc. |WEB Address: www.autodesk.com
 90
    32897
280
     0
281
     0
  0
CLASS
  1
AEC_DISP_PROPS_SPACE_BOUNDARY
  2
AecDbDispPropsSpaceBoundary
  3
AecArchBase50|Product Desc: Autodesk Architectural Desktop 2007 |Company: Autodesk,Inc. |WEB Address: www.autodesk.com
 90
    32897
280
     0
281
     0
  0
CLASS
  1
AEC_DISP_PROPS_SLAB_PLAN
  2
AecDbDispPropsSlabPlan
  3
AecArchBase50|Product Desc: Autodesk Architectural Desktop 2007 |Company: Autodesk,Inc. |WEB Address: www.autodesk.com
 90
    32897
280
     0
281
     0
  0
CLASS
  1
AEC_DISP_PROPS_RAILING_MODEL
  2
AecDbDispPropsRailingModel
  3
AecArchBase50|Product Desc: Autodesk Architectural Desktop 2007 |Company: Autodesk,Inc. |WEB Address: www.autodesk.com
 90
    32897
280
     0
281
     0
  0
CLASS
  1
AEC_DISP_PROPS_MASS_ELEM_MODEL
  2
AecDbDispPropsMassElem
  3
AecBaseEx50|Product Desc: Autodesk Architectural Desktop 2007 |Company: Autodesk,Inc. |WEB Address: www.autodesk.com
 90
    32897
280
     0
281
     0
  0
CLASS
  1
AEC_DISP_PROPS_DIM
  2
AecDbDispPropsDimGroup
  3
AecArchDACHBase50|Product Desc: Autodesk Architectural Desktop 2007 |Company: Autodesk,Inc. |WEB Address: www.autodesk.com
 90
    32897
280
     0
281
     0
  0
CLASS
  1
AEC_DISP_PROPS_ROOFSLAB
  2
AecDbDispPropsRoofSlab
  3
AecArchBase50|Product Desc: Autodesk Architectural Desktop 2007 |Company: Autodesk,Inc. |WEB Address: www.autodesk.com
 90
    32897
280
     0
281
     0
  0
CLASS
  1
AEC_DISP_PROPS_ENT_REF
  2
AecDbDispPropsEntRef
  3
AecBase50|Product Desc: Autodesk Architectural Desktop 2007 |Company: Autodesk,Inc. |WEB Address: www.autodesk.com
 90
    32897
280
     0
281
     0
  0
CLASS
  1
AEC_DISP_PROPS_2D_SECTION
  2
AecDbDispProps2dSection
  3
AecBase50|Product Desc: Autodesk Architectural Desktop 2007 |Company: Autodesk,Inc. |WEB Address: www.autodesk.com
 90
    32897
280
     0
281
     0
  0
CLASS
  1
AECS_DISP_PROPS_MEMBER_LOGICAL
  2
AecsDbDispPropsMemberLogical
  3
AecStructureBase50|Product Desc: Autodesk Architectural Desktop 2007 |Company: Autodesk,Inc. |WEB Address: www.autodesk.com
 90
    32897
280
     0
281
     0
  0
CLASS
  1
AEC_DISP_PROPS_AREA_DECOMPOSED
  2
AecDbDispPropsAreaDecomposed
  3
AecAreaCalculationBase50|Product Desc: Autodesk Architectural Desktop 2007 |Company: Autodesk,Inc. |WEB Address: www.autodesk.com
 90
    32897
280
     0
281
     0
  0
CLASS
  1
AEC_DISP_PROPS_CAMERA
  2
AecDbDispPropsCamera
  3
AecBase50|Product Desc: Autodesk Architectural Desktop 2007 |Company: Autodesk,Inc. |WEB Address: www.autodesk.com
 90
    32897
280
     0
281
     0
  0
CLASS
  1
AECS_DISP_PROPS_MEMBER
  2
AecsDbDispPropsMember
  3
AecStructureBase50|Product Desc: Autodesk Architectural Desktop 2007 |Company: Autodesk,Inc. |WEB Address: www.autodesk.com
 90
    32897
280
     0
281
     0
  0
CLASS
  1
AECS_DISP_PROPS_MEMBER_PLAN
  2
AecsDbDispPropsMemberPlan
  3
AecStructureBase50|Product Desc: Autodesk Architectural Desktop 2007 |Company: Autodesk,Inc. |WEB Address: www.autodesk.com
 90
    32897
280
     0
281
     0
  0
CLASS
  1
AEC_DISP_PROPS_AREAGROUP
  2
AecDbDispPropsAreaGroup
  3
AecAreaCalculationBase50|Product Desc: Autodesk Architectural Desktop 2007 |Company: Autodesk,Inc. |WEB Address: www.autodesk.com
 90
    32897
280
     0
281
     0
  0
CLASS
  1
AEC_DISP_PROPS_WINDOW_NOMINAL
  2
AecDbDispPropsWindowNominal
  3
AecArchBase50|Product Desc: Autodesk Architectural Desktop 2007 |Company: Autodesk,Inc. |WEB Address: www.autodesk.com
 90
    32897
280
     0
281
     0
  0
CLASS
  1
AEC_DISP_PROPS_AREA
  2
AecDbDispPropsArea
  3
AecAreaCalculationBase50|Product Desc: Autodesk Architectural Desktop 2007 |Company: Autodesk,Inc. |WEB Address: www.autodesk.com
 90
    32897
280
     0
281
     0
  0
CLASS
  1
AEC_DISP_PROPS_SCHEDULE_TABLE
  2
AecDbDispPropsScheduleTable
  3
AecSchedule50|Product Desc: Autodesk Architectural Desktop 2007 |Company: Autodesk,Inc. |WEB Address: www.autodesk.com
 90
    32897
280
     0
281
     0
  0
CLASS
  1
AEC_LAYERKEY_STYLE
  2
AecDbLayerKeyStyle
  3
AecBase50|Product Desc: Autodesk Architectural Desktop 2007 |Company: Autodesk,Inc. |WEB Address: www.autodesk.com
 90
    32897
280
     0
281
     0
  0
CLASS
  1
AEC_VARS_ARCHBASE
  2
AecDbVarsArchBase
  3
AecArchBase50|Product Desc: Autodesk Architectural Desktop 2007 |Company: Autodesk,Inc. |WEB Address: www.autodesk.com
 90
    32897
280
     0
281
     0
  0
CLASS
  1
AEC_VARS_MUNICH
  2
AecDbVarsMunich
  3
AecArchDACHBase50|Product Desc: Autodesk Architectural Desktop 2007 |Company: Autodesk,Inc. |WEB Address: www.autodesk.com
 90
    32897
280
     0
281
     0
  0
CLASS
  1
AEC_NOTIFICATION_TRACKER
  2
AecDbNotificationTracker
  3
AecBase50|Product Desc: Autodesk Architectural Desktop 2007 |Company: Autodesk,Inc. |WEB Address: www.autodesk.com
 90
    32897
280
     0
281
     0
  0
CLASS
  1
AEC_DISP_REP_ANCHOR
  2
AecDbDispRepAnchor
  3
AecBase50|Product Desc: Autodesk Architectural Desktop 2007 |Company: Autodesk,Inc. |WEB Address: www.autodesk.com
 90
    32897
280
     0
281
     0
  0
CLASS
  1
AEC_DISP_REP_POLYGON_TRUECOLOUR
  2
AecDbDispRepPolygonTrueColour
  3
AecBaseEx50|Product Desc: Autodesk Architectural Desktop 2007 |Company: Autodesk,Inc. |WEB Address: www.autodesk.com
 90
    32897
280
     0
281
     0
  0
CLASS
  1
AEC_DISP_PROPS_POLYGON_TRUECOLOUR
  2
AecDbDispPropsPolygonTrueColour
  3
AecBaseEx50|Product Desc: Autodesk Architectural Desktop 2007 |Company: Autodesk,Inc. |WEB Address: www.autodesk.com
 90
    32897
280
     0
281
     0
  0
CLASS
  1
AEC_DISP_REP_BDG_ELEVLINE_RCP
  2
AecDbDispRepBdgElevLineRcp
  3
AecArchBase50|Product Desc: Autodesk Architectural Desktop 2007 |Company: Autodesk,Inc. |WEB Address: www.autodesk.com
 90
    32897
280
     0
281
     0
  0
CLASS
  1
AEC_DISP_REP_BDG_SECTIONLINE_RCP
  2
AecDbDispRepBdgSectionLineRcp
  3
AecArchBase50|Product Desc: Autodesk Architectural Desktop 2007 |Company: Autodesk,Inc. |WEB Address: www.autodesk.com
 90
    32897
280
     0
281
     0
  0
CLASS
  1
AEC_DISP_REP_BDG_SECTION_MODEL
  2
AecDbDispRepBdgSectionModel
  3
AecArchBase50|Product Desc: Autodesk Architectural Desktop 2007 |Company: Autodesk,Inc. |WEB Address: www.autodesk.com
 90
    32897
280
     0
281
     0
  0
CLASS
  1
AEC_DISP_REP_DOOR_ELEV
  2
AecDbDispRepDoorElev
  3
AecArchBase50|Product Desc: Autodesk Architectural Desktop 2007 |Company: Autodesk,Inc. |WEB Address: www.autodesk.com
 90
    32897
280
     0
281
     0
  0
CLASS
  1
AEC_DISP_REP_DOOR_RCP
  2
AecDbDispRepDoorRcp
  3
AecArchBase50|Product Desc: Autodesk Architectural Desktop 2007 |Company: Autodesk,Inc. |WEB Address: www.autodesk.com
 90
    32897
280
     0
281
     0
  0
CLASS
  1
AEC_DISP_REP_DOOR_THRESHOLD_PLAN
  2
AecDbDispRepDoorThresholdPlan
  3
AecArchBase50|Product Desc: Autodesk Architectural Desktop 2007 |Company: Autodesk,Inc. |WEB Address: www.autodesk.com
 90
    32897
280
     0
281
     0
  0
CLASS
  1
AEC_DISP_PROPS_DOOR_THRESHOLD_PLAN
  2
AecDbDispPropsDoorThresholdPlan
  3
AecArchBase50|Product Desc: Autodesk Architectural Desktop 2007 |Company: Autodesk,Inc. |WEB Address: www.autodesk.com
 90
    32897
280
     0
281
     0
  0
CLASS
  1
AEC_DISP_REP_MASS_ELEM_RCP
  2
AecDbDispRepMassElemRcp
  3
AecArchBase50|Product Desc: Autodesk Architectural Desktop 2007 |Company: Autodesk,Inc. |WEB Address: www.autodesk.com
 90
    32897
280
     0
281
     0
  0
CLASS
  1
AEC_DISP_REP_MASS_GROUP_RCP
  2
AecDbDispRepMassGroupRcp
  3
AecArchBase50|Product Desc: Autodesk Architectural Desktop 2007 |Company: Autodesk,Inc. |WEB Address: www.autodesk.com
 90
    32897
280
     0
281
     0
  0
CLASS
  1
AEC_DISP_REP_MVBLOCK_REF_RCP
  2
AecDbDispRepMvBlockRefRcp
  3
AecArchBase50|Product Desc: Autodesk Architectural Desktop 2007 |Company: Autodesk,Inc. |WEB Address: www.autodesk.com
 90
    32897
280
     0
281
     0
  0
CLASS
  1
AEC_DISP_REP_ROOF_RCP
  2
AecDbDispRepRoofRcp
  3
AecArchBase50|Product Desc: Autodesk Architectural Desktop 2007 |Company: Autodesk,Inc. |WEB Address: www.autodesk.com
 90
    32897
280
     0
281
     0
  0
CLASS
  1
AEC_DISP_REP_SPACE_BOUNDARY_DIAGRAM
  2
AecDbDispRepSpaceBoundaryDgrm
  3
AecArchBase50|Product Desc: Autodesk Architectural Desktop 2007 |Company: Autodesk,Inc. |WEB Address: www.autodesk.com
 90
    32897
280
     0
281
     0
  0
CLASS
  1
AEC_DISP_REP_SPACE_RCP
  2
AecDbDispRepSpaceRcp
  3
AecArchBase50|Product Desc: Autodesk Architectural Desktop 2007 |Company: Autodesk,Inc. |WEB Address: www.autodesk.com
 90
    32897
280
     0
281
     0
  0
CLASS
  1
AEC_DISP_REP_SPACE_VOLUME
  2
AecDbDispRepSpaceVolume
  3
AecArchBase50|Product Desc: Autodesk Architectural Desktop 2007 |Company: Autodesk,Inc. |WEB Address: www.autodesk.com
 90
    32897
280
     0
281
     0
  0
CLASS
  1
AEC_DISP_REP_STAIR_PLAN_OVERLAPPING
  2
AecDbDispRepStairPlanOverlapping
  3
AecArchBase50|Product Desc: Autodesk Architectural Desktop 2007 |Company: Autodesk,Inc. |WEB Address: www.autodesk.com
 90
    32897
280
     0
281
     0
  0
CLASS
  1
AEC_DISP_PROPS_STAIR_PLAN_OVERLAPPING
  2
AecDbDispPropsStairPlanOverlapping
  3
AecArchBase50|Product Desc: Autodesk Architectural Desktop 2007 |Company: Autodesk,Inc. |WEB Address: www.autodesk.com
 90
    32897
280
     0
281
     0
  0
CLASS
  1
AEC_DISP_REP_STAIR_RCP
  2
AecDbDispRepStairRcp
  3
AecArchBase50|Product Desc: Autodesk Architectural Desktop 2007 |Company: Autodesk,Inc. |WEB Address: www.autodesk.com
 90
    32897
280
     0
281
     0
  0
CLASS
  1
AEC_DISP_REP_WALL_RCP
  2
AecDbDispRepWallRcp
  3
AecArchBase50|Product Desc: Autodesk Architectural Desktop 2007 |Company: Autodesk,Inc. |WEB Address: www.autodesk.com
 90
    32897
280
     0
281
     0
  0
CLASS
  1
AEC_DISP_REP_WINDOWASSEMBLY_SILL_PLAN
  2
AecDbDispRepWindowAssemblySillPlan
  3
AecArchBase50|Product Desc: Autodesk Architectural Desktop 2007 |Company: Autodesk,Inc. |WEB Address: www.autodesk.com
 90
    32897
280
     0
281
     0
  0
CLASS
  1
AEC_DISP_PROPS_WINDOW_ASSEMBLY_SILL_PLAN
  2
AecDbDispPropsWindowAssemblySillPlan
  3
AecArchBase50|Product Desc: Autodesk Architectural Desktop 2007 |Company: Autodesk,Inc. |WEB Address: www.autodesk.com
 90
    32897
280
     0
281
     0
  0
CLASS
  1
AEC_DISP_REP_WINDOW_ELEV
  2
AecDbDispRepWindowElev
  3
AecArchBase50|Product Desc: Autodesk Architectural Desktop 2007 |Company: Autodesk,Inc. |WEB Address: www.autodesk.com
 90
    32897
280
     0
281
     0
  0
CLASS
  1
AEC_DISP_REP_WINDOW_RCP
  2
AecDbDispRepWindowRcp
  3
AecArchBase50|Product Desc: Autodesk Architectural Desktop 2007 |Company: Autodesk,Inc. |WEB Address: www.autodesk.com
 90
    32897
280
     0
281
     0
  0
CLASS
  1
AEC_DISP_REP_WINDOW_SILL_PLAN
  2
AecDbDispRepWindowSillPlan
  3
AecArchBase50|Product Desc: Autodesk Architectural Desktop 2007 |Company: Autodesk,Inc. |WEB Address: www.autodesk.com
 90
    32897
280
     0
281
     0
  0
CLASS
  1
AEC_DISP_PROPS_WINDOW_SILL_PLAN
  2
AecDbDispPropsWindowSillPlan
  3
AecArchBase50|Product Desc: Autodesk Architectural Desktop 2007 |Company: Autodesk,Inc. |WEB Address: www.autodesk.com
 90
    32897
280
     0
281
     0
  0
CLASS
  1
AEC_DISP_REP_ANCHOR_BUB_TO_GRID_RCP
  2
AecDbDispRepAnchorBubToGridRcp
  3
AecStructureBase50|Product Desc: Autodesk Architectural Desktop 2007 |Company: Autodesk,Inc. |WEB Address: www.autodesk.com
 90
    32897
280
     0
281
     0
  0
CLASS
  1
AEC_DISP_REP_COLUMN_GRID_RCP
  2
AecDbDispRepColumnGridRcp
  3
AecStructureBase50|Product Desc: Autodesk Architectural Desktop 2007 |Company: Autodesk,Inc. |WEB Address: www.autodesk.com
 90
    32897
280
     0
281
     0
  0
CLASS
  1
AECS_DISP_REP_MEMBER_ELEVATION_DESIGN
  2
AecsDbDispRepMemberElevationDesign
  3
AecStructureBase50|Product Desc: Autodesk Architectural Desktop 2007 |Company: Autodesk,Inc. |WEB Address: www.autodesk.com
 90
    32897
280
     0
281
     0
  0
CLASS
  1
AECS_DISP_PROPS_MEMBER_PROJECTED
  2
AecsDbDispPropsMemberProjected
  3
AecStructureBase50|Product Desc: Autodesk Architectural Desktop 2007 |Company: Autodesk,Inc. |WEB Address: www.autodesk.com
 90
    32897
280
     0
281
     0
  0
CLASS
  1
AECS_DISP_REP_MEMBER_ELEVATION_DETAIL
  2
AecsDbDispRepMemberElevationDetail
  3
AecStructureBase50|Product Desc: Autodesk Architectural Desktop 2007 |Company: Autodesk,Inc. |WEB Address: www.autodesk.com
 90
    32897
280
     0
281
     0
  0
CLASS
  1
AECS_DISP_REP_MEMBER_MODEL_DETAIL
  2
AecsDbDispRepMemberModelDetail
  3
AecStructureBase50|Product Desc: Autodesk Architectural Desktop 2007 |Company: Autodesk,Inc. |WEB Address: www.autodesk.com
 90
    32897
280
     0
281
     0
  0
CLASS
  1
AECS_DISP_REP_MEMBER_PLAN_DETAIL
  2
AecsDbDispRepMemberPlanDetail
  3
AecStructureBase50|Product Desc: Autodesk Architectural Desktop 2007 |Company: Autodesk,Inc. |WEB Address: www.autodesk.com
 90
    32897
280
     0
281
     0
  0
CLASS
  1
AECS_DISP_REP_MEMBER_PLAN_SKETCH
  2
AecsDbDispRepMemberPlanSketch
  3
AecStructureBase50|Product Desc: Autodesk Architectural Desktop 2007 |Company: Autodesk,Inc. |WEB Address: www.autodesk.com
 90
    32897
280
     0
281
     0
  0
CLASS
  1
AECS_DISP_PROPS_MEMBER_PLAN_SKETCH
  2
AecsDbDispPropsMemberPlanSketch
  3
AecStructureBase50|Product Desc: Autodesk Architectural Desktop 2007 |Company: Autodesk,Inc. |WEB Address: www.autodesk.com
 90
    32897
280
     0
281
     0
  0
CLASS
  1
AEC_AECDBDISPREPAREA100
  2
AecDbDispRepArea100
  3
AecArchDACHBase50|Product Desc: Autodesk Architectural Desktop 2007 |Company: Autodesk,Inc. |WEB Address: www.autodesk.com
 90
    32897
280
     0
281
     0
  0
CLASS
  1
AEC_AECDBDISPREPAREAGROUP100
  2
AecDbDispRepAreaGroup100
  3
AecArchDACHBase50|Product Desc: Autodesk Architectural Desktop 2007 |Company: Autodesk,Inc. |WEB Address: www.autodesk.com
 90
    32897
280
     0
281
     0
  0
CLASS
  1
AEC_AECDBDISPREPBDGELEVLINEPLAN100
  2
AecDbDispRepBdgElevLinePlan100
  3
AecArchDACHBase50|Product Desc: Autodesk Architectural Desktop 2007 |Company: Autodesk,Inc. |WEB Address: www.autodesk.com
 90
    32897
280
     0
281
     0
  0
CLASS
  1
AEC_AECDBDISPREPBDGSECTIONLINEPLAN100
  2
AecDbDispRepBdgSectionLinePlan100
  3
AecArchDACHBase50|Product Desc: Autodesk Architectural Desktop 2007 |Company: Autodesk,Inc. |WEB Address: www.autodesk.com
 90
    32897
280
     0
281
     0
  0
CLASS
  1
AEC_AECDBDISPREPCEILINGGRIDPLAN100
  2
AecDbDispRepCeilingGridPlan100
  3
AecArchDACHBase50|Product Desc: Autodesk Architectural Desktop 2007 |Company: Autodesk,Inc. |WEB Address: www.autodesk.com
 90
    32897
280
     0
281
     0
  0
CLASS
  1
AEC_AECDBDISPREPCOLUMNGRIDPLAN100
  2
AecDbDispRepColumnGridPlan100
  3
AecArchDACHBase50|Product Desc: Autodesk Architectural Desktop 2007 |Company: Autodesk,Inc. |WEB Address: www.autodesk.com
 90
    32897
280
     0
281
     0
  0
CLASS
  1
AEC_AECDBDISPREPCURTAINWALLLAYOUTPLAN100
  2
AecDbDispRepCurtainWallLayoutPlan100
  3
AecArchDACHBase50|Product Desc: Autodesk Architectural Desktop 2007 |Company: Autodesk,Inc. |WEB Address: www.autodesk.com
 90
    32897
280
     0
281
     0
  0
CLASS
  1
AEC_AECDBDISPREPCURTAINWALLUNITPLAN100
  2
AecDbDispRepCurtainWallUnitPlan100
  3
AecArchDACHBase50|Product Desc: Autodesk Architectural Desktop 2007 |Company: Autodesk,Inc. |WEB Address: www.autodesk.com
 90
    32897
280
     0
281
     0
  0
CLASS
  1
AEC_AECDBDISPREPMVBLOCKREFPLAN100
  2
AecDbDispRepMvBlockRefPlan100
  3
AecArchDACHBase50|Product Desc: Autodesk Architectural Desktop 2007 |Company: Autodesk,Inc. |WEB Address: www.autodesk.com
 90
    32897
280
     0
281
     0
  0
CLASS
  1
AEC_AECDBDISPREPROOFPLAN100
  2
AecDbDispRepRoofPlan100
  3
AecArchDACHBase50|Product Desc: Autodesk Architectural Desktop 2007 |Company: Autodesk,Inc. |WEB Address: www.autodesk.com
 90
    32897
280
     0
281
     0
  0
CLASS
  1
AEC_AECDBDISPREPROOFSLABPLAN100
  2
AecDbDispRepRoofSlabPlan100
  3
AecArchDACHBase50|Product Desc: Autodesk Architectural Desktop 2007 |Company: Autodesk,Inc. |WEB Address: www.autodesk.com
 90
    32897
280
     0
281
     0
  0
CLASS
  1
AEC_AECDBDISPREPSLABPLAN100
  2
AecDbDispRepSlabPlan100
  3
AecArchDACHBase50|Product Desc: Autodesk Architectural Desktop 2007 |Company: Autodesk,Inc. |WEB Address: www.autodesk.com
 90
    32897
280
     0
281
     0
  0
CLASS
  1
AEC_AECDBDISPREPSPACEBOUNDARYPLAN100
  2
AecDbDispRepSpaceBoundaryPlan100
  3
AecArchDACHBase50|Product Desc: Autodesk Architectural Desktop 2007 |Company: Autodesk,Inc. |WEB Address: www.autodesk.com
 90
    32897
280
     0
281
     0
  0
CLASS
  1
AEC_AECDBDISPREPSPACEPLAN100
  2
AecDbDispRepSpacePlan100
  3
AecArchDACHBase50|Product Desc: Autodesk Architectural Desktop 2007 |Company: Autodesk,Inc. |WEB Address: www.autodesk.com
 90
    32897
280
     0
281
     0
  0
CLASS
  1
AEC_AECDBDISPREPWALLPLAN100
  2
AecDbDispRepWallPlan100
  3
AecArchDACHBase50|Product Desc: Autodesk Architectural Desktop 2007 |Company: Autodesk,Inc. |WEB Address: www.autodesk.com
 90
    32897
280
     0
281
     0
  0
CLASS
  1
AEC_AECDBDISPREPAREA50
  2
AecDbDispRepArea50
  3
AecArchDACHBase50|Product Desc: Autodesk Architectural Desktop 2007 |Company: Autodesk,Inc. |WEB Address: www.autodesk.com
 90
    32897
280
     0
281
     0
  0
CLASS
  1
AEC_AECDBDISPREPAREAGROUP50
  2
AecDbDispRepAreaGroup50
  3
AecArchDACHBase50|Product Desc: Autodesk Architectural Desktop 2007 |Company: Autodesk,Inc. |WEB Address: www.autodesk.com
 90
    32897
280
     0
281
     0
  0
CLASS
  1
AEC_AECDBDISPREPBDGELEVLINEPLAN50
  2
AecDbDispRepBdgElevLinePlan50
  3
AecArchDACHBase50|Product Desc: Autodesk Architectural Desktop 2007 |Company: Autodesk,Inc. |WEB Address: www.autodesk.com
 90
    32897
280
     0
281
     0
  0
CLASS
  1
AEC_AECDBDISPREPBDGSECTIONLINEPLAN50
  2
AecDbDispRepBdgSectionLinePlan50
  3
AecArchDACHBase50|Product Desc: Autodesk Architectural Desktop 2007 |Company: Autodesk,Inc. |WEB Address: www.autodesk.com
 90
    32897
280
     0
281
     0
  0
CLASS
  1
AEC_AECDBDISPREPCEILINGGRIDPLAN50
  2
AecDbDispRepCeilingGridPlan50
  3
AecArchDACHBase50|Product Desc: Autodesk Architectural Desktop 2007 |Company: Autodesk,Inc. |WEB Address: www.autodesk.com
 90
    32897
280
     0
281
     0
  0
CLASS
  1
AEC_AECDBDISPREPCOLUMNGRIDPLAN50
  2
AecDbDispRepColumnGridPlan50
  3
AecArchDACHBase50|Product Desc: Autodesk Architectural Desktop 2007 |Company: Autodesk,Inc. |WEB Address: www.autodesk.com
 90
    32897
280
     0
281
     0
  0
CLASS
  1
AEC_AECDBDISPREPCURTAINWALLLAYOUTPLAN50
  2
AecDbDispRepCurtainWallLayoutPlan50
  3
AecArchDACHBase50|Product Desc: Autodesk Architectural Desktop 2007 |Company: Autodesk,Inc. |WEB Address: www.autodesk.com
 90
    32897
280
     0
281
     0
  0
CLASS
  1
AEC_AECDBDISPREPCURTAINWALLUNITPLAN50
  2
AecDbDispRepCurtainWallUnitPlan50
  3
AecArchDACHBase50|Product Desc: Autodesk Architectural Desktop 2007 |Company: Autodesk,Inc. |WEB Address: www.autodesk.com
 90
    32897
280
     0
281
     0
  0
CLASS
  1
AEC_AECDBDISPREPMVBLOCKREFPLAN50
  2
AecDbDispRepMvBlockRefPlan50
  3
AecArchDACHBase50|Product Desc: Autodesk Architectural Desktop 2007 |Company: Autodesk,Inc. |WEB Address: www.autodesk.com
 90
    32897
280
     0
281
     0
  0
CLASS
  1
AEC_AECDBDISPREPROOFPLAN50
  2
AecDbDispRepRoofPlan50
  3
AecArchDACHBase50|Product Desc: Autodesk Architectural Desktop 2007 |Company: Autodesk,Inc. |WEB Address: www.autodesk.com
 90
    32897
280
     0
281
     0
  0
CLASS
  1
AEC_AECDBDISPREPROOFSLABPLAN50
  2
AecDbDispRepRoofSlabPlan50
  3
AecArchDACHBase50|Product Desc: Autodesk Architectural Desktop 2007 |Company: Autodesk,Inc. |WEB Address: www.autodesk.com
 90
    32897
280
     0
281
     0
  0
CLASS
  1
AEC_AECDBDISPREPSLABPLAN50
  2
AecDbDispRepSlabPlan50
  3
AecArchDACHBase50|Product Desc: Autodesk Architectural Desktop 2007 |Company: Autodesk,Inc. |WEB Address: www.autodesk.com
 90
    32897
280
     0
281
     0
  0
CLASS
  1
AEC_AECDBDISPREPSPACEBOUNDARYPLAN50
  2
AecDbDispRepSpaceBoundaryPlan50
  3
AecArchDACHBase50|Product Desc: Autodesk Architectural Desktop 2007 |Company: Autodesk,Inc. |WEB Address: www.autodesk.com
 90
    32897
280
     0
281
     0
  0
CLASS
  1
AEC_AECDBDISPREPSPACEPLAN50
  2
AecDbDispRepSpacePlan50
  3
AecArchDACHBase50|Product Desc: Autodesk Architectural Desktop 2007 |Company: Autodesk,Inc. |WEB Address: www.autodesk.com
 90
    32897
280
     0
281
     0
  0
CLASS
  1
AEC_AECDBDISPREPWALLPLAN50
  2
AecDbDispRepWallPlan50
  3
AecArchDACHBase50|Product Desc: Autodesk Architectural Desktop 2007 |Company: Autodesk,Inc. |WEB Address: www.autodesk.com
 90
    32897
280
     0
281
     0
  0
CLASS
  1
AEC_AECDBDISPREPWINDOWASSEMBLYPLAN50
  2
AecDbDispRepWindowAssemblyPlan50
  3
AecArchDACHBase50|Product Desc: Autodesk Architectural Desktop 2007 |Company: Autodesk,Inc. |WEB Address: www.autodesk.com
 90
    32897
280
     0
281
     0
  0
CLASS
  1
AEC_DB_DISP_REP_DIM_GROUP_PLAN100
  2
AecDbDispRepDimGroupPlan100
  3
AecArchDACHBase50|Product Desc: Autodesk Architectural Desktop 2007 |Company: Autodesk,Inc. |WEB Address: www.autodesk.com
 90
    32897
280
     0
281
     0
  0
CLASS
  1
AEC_DB_DISP_REP_DIM_GROUP_PLAN50
  2
AecDbDispRepDimGroupPlan50
  3
AecArchDACHBase50|Product Desc: Autodesk Architectural Desktop 2007 |Company: Autodesk,Inc. |WEB Address: www.autodesk.com
 90
    32897
280
     0
281
     0
  0
CLASS
  1
AEC_DISP_REP_DOOR_PLAN_50
  2
AecDbDispRepDoorPlan50
  3
AecArchDACHBase50|Product Desc: Autodesk Architectural Desktop 2007 |Company: Autodesk,Inc. |WEB Address: www.autodesk.com
 90
    32897
280
     0
281
     0
  0
CLASS
  1
AEC_DISP_PROPS_DOOR_PLAN_50
  2
AecDbDispPropsDoorPlan50
  3
AecArchDACHBase50|Product Desc: Autodesk Architectural Desktop 2007 |Company: Autodesk,Inc. |WEB Address: www.autodesk.com
 90
    32897
280
     0
281
     0
  0
CLASS
  1
AEC_DISP_REP_DOOR_PLAN_HEKTO
  2
AecDbDispRepDoorPlanHekto
  3
AecArchDACHBase50|Product Desc: Autodesk Architectural Desktop 2007 |Company: Autodesk,Inc. |WEB Address: www.autodesk.com
 90
    32897
280
     0
281
     0
  0
CLASS
  1
AEC_DISP_PROPS_DOOR_PLAN_100
  2
AecDbDispPropsDoorPlan100
  3
AecArchDACHBase50|Product Desc: Autodesk Architectural Desktop 2007 |Company: Autodesk,Inc. |WEB Address: www.autodesk.com
 90
    32897
280
     0
281
     0
  0
CLASS
  1
AEC_DISP_REP_DOOR_THRESHOLD_SYMBOL_PLAN
  2
AecDbDispRepDoorThresholdSymbolPlan
  3
AecArchDACHBase50|Product Desc: Autodesk Architectural Desktop 2007 |Company: Autodesk,Inc. |WEB Address: www.autodesk.com
 90
    32897
280
     0
281
     0
  0
CLASS
  1
AEC_DISP_PROPS_DOOR_THRESHOLD_SYMBOL_PLAN
  2
AecDbDispPropsDoorThresholdSymbolPlan
  3
AecArchDACHBase50|Product Desc: Autodesk Architectural Desktop 2007 |Company: Autodesk,Inc. |WEB Address: www.autodesk.com
 90
    32897
280
     0
281
     0
  0
CLASS
  1
AEC_DISPREPAECDBDISPREPMASSELEMPLAN100
  2
AecDbDispRepMassElemPlan100
  3
AecArchDACHBase50|Product Desc: Autodesk Architectural Desktop 2007 |Company: Autodesk,Inc. |WEB Address: www.autodesk.com
 90
    32897
280
     0
281
     0
  0
CLASS
  1
AEC_DISPROPSMASSELEMPLANCOMMON
  2
AecDbDispPropsMassElemPlanCommon
  3
AecArchDACHBase50|Product Desc: Autodesk Architectural Desktop 2007 |Company: Autodesk,Inc. |WEB Address: www.autodesk.com
 90
    32897
280
     0
281
     0
  0
CLASS
  1
AEC_DISPREPAECDBDISPREPMASSELEMPLAN50
  2
AecDbDispRepMassElemPlan50
  3
AecArchDACHBase50|Product Desc: Autodesk Architectural Desktop 2007 |Company: Autodesk,Inc. |WEB Address: www.autodesk.com
 90
    32897
280
     0
281
     0
  0
CLASS
  1
AEC_DISPREPAECDBDISPREPMASSGROUPPLAN100
  2
AecDbDispRepMassGroupPlan100
  3
AecArchDACHBase50|Product Desc: Autodesk Architectural Desktop 2007 |Company: Autodesk,Inc. |WEB Address: www.autodesk.com
 90
    32897
280
     0
281
     0
  0
CLASS
  1
AEC_DISPROPSMASSGROUPPLANCOMMON
  2
AecDbDispPropsMassGroupPlanCommon
  3
AecArchDACHBase50|Product Desc: Autodesk Architectural Desktop 2007 |Company: Autodesk,Inc. |WEB Address: www.autodesk.com
 90
    32897
280
     0
281
     0
  0
CLASS
  1
AEC_DISPREPAECDBDISPREPMASSGROUPPLAN50
  2
AecDbDispRepMassGroupPlan50
  3
AecArchDACHBase50|Product Desc: Autodesk Architectural Desktop 2007 |Company: Autodesk,Inc. |WEB Address: www.autodesk.com
 90
    32897
280
     0
281
     0
  0
CLASS
  1
AEC_DISPREPAECDBDISPREPOPENINGPLAN100
  2
AecDbDispRepOpeningPlan100
  3
AecArchDACHBase50|Product Desc: Autodesk Architectural Desktop 2007 |Company: Autodesk,Inc. |WEB Address: www.autodesk.com
 90
    32897
280
     0
281
     0
  0
CLASS
  1
AEC_DISPROPSOPENINGPLANCOMMONHATCHED
  2
AecDbDispPropsOpeningPlanCommonHatched
  3
AecArchDACHBase50|Product Desc: Autodesk Architectural Desktop 2007 |Company: Autodesk,Inc. |WEB Address: www.autodesk.com
 90
    32897
280
     0
281
     0
  0
CLASS
  1
AEC_DISPREPAECDBDISPREPOPENINGPLAN50
  2
AecDbDispRepOpeningPlan50
  3
AecArchDACHBase50|Product Desc: Autodesk Architectural Desktop 2007 |Company: Autodesk,Inc. |WEB Address: www.autodesk.com
 90
    32897
280
     0
281
     0
  0
CLASS
  1
AEC_DISPREPAECDBDISPREPOPENINGPLANREFLECTED
  2
AecDbDispRepOpeningPlanReflected
  3
AecArchDACHBase50|Product Desc: Autodesk Architectural Desktop 2007 |Company: Autodesk,Inc. |WEB Address: www.autodesk.com
 90
    32897
280
     0
281
     0
  0
CLASS
  1
AEC_DISPROPSOPENINGPLANCOMMON
  2
AecDbDispPropsOpeningPlanCommon
  3
AecArchDACHBase50|Product Desc: Autodesk Architectural Desktop 2007 |Company: Autodesk,Inc. |WEB Address: www.autodesk.com
 90
    32897
280
     0
281
     0
  0
CLASS
  1
AEC_DISPREPAECDBDISPREPOPENINGSILLPLAN
  2
AecDbDispRepOpeningSillPlan
  3
AecArchDACHBase50|Product Desc: Autodesk Architectural Desktop 2007 |Company: Autodesk,Inc. |WEB Address: www.autodesk.com
 90
    32897
280
     0
281
     0
  0
CLASS
  1
AEC_DISPROPSOPENINGSILLPLAN
  2
AecDbDispPropsOpeningSillPlan
  3
AecArchDACHBase50|Product Desc: Autodesk Architectural Desktop 2007 |Company: Autodesk,Inc. |WEB Address: www.autodesk.com
 90
    32897
280
     0
281
     0
  0
CLASS
  1
AEC_DISP_REP_RAILING_PLAN_100
  2
AecDbDispRepRailingPlan100
  3
AecArchDACHBase50|Product Desc: Autodesk Architectural Desktop 2007 |Company: Autodesk,Inc. |WEB Address: www.autodesk.com
 90
    32897
280
     0
281
     0
  0
CLASS
  1
AEC_DISP_ROPS_RAILING_PLAN_100
  2
AecDbDispPropsRailingPlan100
  3
AecArchDACHBase50|Product Desc: Autodesk Architectural Desktop 2007 |Company: Autodesk,Inc. |WEB Address: www.autodesk.com
 90
    32897
280
     0
281
     0
  0
CLASS
  1
AEC_DISP_REP_RAILING_PLAN_50
  2
AecDbDispRepRailingPlan50
  3
AecArchDACHBase50|Product Desc: Autodesk Architectural Desktop 2007 |Company: Autodesk,Inc. |WEB Address: www.autodesk.com
 90
    32897
280
     0
281
     0
  0
CLASS
  1
AEC_DISP_ROPS_RAILING_PLAN_50
  2
AecDbDispPropsRailingPlan50
  3
AecArchDACHBase50|Product Desc: Autodesk Architectural Desktop 2007 |Company: Autodesk,Inc. |WEB Address: www.autodesk.com
 90
    32897
280
     0
281
     0
  0
CLASS
  1
AEC_DISP_REP_STAIR_PLAN_100
  2
AecDbDispRepStairPlan100
  3
AecArchDACHBase50|Product Desc: Autodesk Architectural Desktop 2007 |Company: Autodesk,Inc. |WEB Address: www.autodesk.com
 90
    32897
280
     0
281
     0
  0
CLASS
  1
AEC_DISP_ROPS_STAIR_PLAN_100
  2
AecDbDispPropsStairPlan100
  3
AecArchDACHBase50|Product Desc: Autodesk Architectural Desktop 2007 |Company: Autodesk,Inc. |WEB Address: www.autodesk.com
 90
    32897
280
     0
281
     0
  0
CLASS
  1
AEC_DISP_REP_STAIR_PLAN_50
  2
AecDbDispRepStairPlan50
  3
AecArchDACHBase50|Product Desc: Autodesk Architectural Desktop 2007 |Company: Autodesk,Inc. |WEB Address: www.autodesk.com
 90
    32897
280
     0
281
     0
  0
CLASS
  1
AEC_DISP_ROPS_STAIR_PLAN_50
  2
AecDbDispPropsStairPlan50
  3
AecArchDACHBase50|Product Desc: Autodesk Architectural Desktop 2007 |Company: Autodesk,Inc. |WEB Address: www.autodesk.com
 90
    32897
280
     0
281
     0
  0
CLASS
  1
AEC_DISP_REP_WINDOW_PLAN_100
  2
AecDbDispRepWindowPlan100
  3
AecArchDACHBase50|Product Desc: Autodesk Architectural Desktop 2007 |Company: Autodesk,Inc. |WEB Address: www.autodesk.com
 90
    32897
280
     0
281
     0
  0
CLASS
  1
AEC_DISP_PROPS_WINDOW_PLAN_100
  2
AecDbDispPropsWindowPlan100
  3
AecArchDACHBase50|Product Desc: Autodesk Architectural Desktop 2007 |Company: Autodesk,Inc. |WEB Address: www.autodesk.com
 90
    32897
280
     0
281
     0
  0
CLASS
  1
AEC_DISP_REP_WINDOW_PLAN_50
  2
AecDbDispRepWindowPlan50
  3
AecArchDACHBase50|Product Desc: Autodesk Architectural Desktop 2007 |Company: Autodesk,Inc. |WEB Address: www.autodesk.com
 90
    32897
280
     0
281
     0
  0
CLASS
  1
AEC_DISP_PROPS_WINDOW_PLAN_50
  2
AecDbDispPropsWindowPlan50
  3
AecArchDACHBase50|Product Desc: Autodesk Architectural Desktop 2007 |Company: Autodesk,Inc. |WEB Address: www.autodesk.com
 90
    32897
280
     0
281
     0
  0
CLASS
  1
BINRECORD
  2
AcAecBinRecord
  3
AecBase50|Product Desc: Autodesk Architectural Desktop 2007 |Company: Autodesk,Inc. |WEB Address: www.autodesk.com
 90
    32897
280
     0
281
     0
  0
CLASS
  1
SORTENTSTABLE
  2
AcDbSortentsTable
  3
ObjectDBX Classes
 90
        0
280
     0
281
     0
  0
CLASS
  1
AEC_MASS_ELEM
  2
AecDbMassElem
  3
AecBaseEx50|Product Desc: Autodesk Architectural Desktop 2007 |Company: Autodesk,Inc. |WEB Address: www.autodesk.com
 90
    33661
280
     0
281
     1
  0
CLASS
  1
MATERIAL
  2
AcDbMaterial
  3
ObjectDBX Classes
 90
     1153
280
     0
281
     0
  0
CLASS
  1
AECS_MEMBER
  2
AecsDbMember
  3
AecStructureBase50|Product Desc: Autodesk Architectural Desktop 2007 |Company: Autodesk,Inc. |WEB Address: www.autodesk.com
 90
    33661
280
     0
281
     1
  0
CLASS
  1
AEC_WALL
  2
AecDbWall
  3
AecArchBase50|Product Desc: Autodesk Architectural Desktop 2007 |Company: Autodesk,Inc. |WEB Address: www.autodesk.com
 90
    33661
280
     0
281
     1
  0
CLASS
  1
AEC_DOOR
  2
AecDbDoor
  3
AecArchBase50|Product Desc: Autodesk Architectural Desktop 2007 |Company: Autodesk,Inc. |WEB Address: www.autodesk.com
 90
    33661
280
     0
281
     1
  0
CLASS
  1
AEC_ANCHOR_OPENINGBASE_TO_WALL
  2
AecDbAnchorOpeningBaseToWall
  3
AecArchBase50|Product Desc: Autodesk Architectural Desktop 2007 |Company: Autodesk,Inc. |WEB Address: www.autodesk.com
 90
    32897
280
     0
281
     0
  0
CLASS
  1
AEC_SPACE_BOUNDARY
  2
AecDbSpaceBoundary
  3
AecArchBase50|Product Desc: Autodesk Architectural Desktop 2007 |Company: Autodesk,Inc. |WEB Address: www.autodesk.com
 90
    33661
280
     0
281
     1
  0
CLASS
  1
AEC_SPACE
  2
AecDbSpace
  3
AecArchBase50|Product Desc: Autodesk Architectural Desktop 2007 |Company: Autodesk,Inc. |WEB Address: www.autodesk.com
 90
    33661
280
     0
281
     1
  0
CLASS
  1
AecDbPropertySet
  2
AecDbPropertySet
  3
AecScheduleData50|Product Desc: Autodesk Architectural Desktop 2007 |Company: Autodesk,Inc. |WEB Address: www.autodesk.com
 90
    32897
280
     0
281
     0
  0
CLASS
  1
AEC_MVBLOCK_REF
  2
AecDbMvBlockRef
  3
AecBase50|Product Desc: Autodesk Architectural Desktop 2007 |Company: Autodesk,Inc. |WEB Address: www.autodesk.com
 90
    33661
280
     0
281
     1
  0
CLASS
  1
AEC_ANCHOR_TAG_TO_ENT
  2
AecDbAnchorTagToEnt
  3
AecScheduleData50|Product Desc: Autodesk Architectural Desktop 2007 |Company: Autodesk,Inc. |WEB Address: www.autodesk.com
 90
    32897
280
     0
281
     0
  0
CLASS
  1
AEC_WINDOW
  2
AecDbWindow
  3
AecArchBase50|Product Desc: Autodesk Architectural Desktop 2007 |Company: Autodesk,Inc. |WEB Address: www.autodesk.com
 90
    33661
280
     0
281
     1
  0
CLASS
  1
AEC_OPENING
  2
AecDbOpening
  3
AecArchBase50|Product Desc: Autodesk Architectural Desktop 2007 |Company: Autodesk,Inc. |WEB Address: www.autodesk.com
 90
    33661
280
     0
281
     1
  0
CLASS
  1
AEC_CLASSIFICATION_SYSTEM_DEF
  2
AecDbClassificationSystemDef
  3
AecBase50|Product Desc: Autodesk Architectural Desktop 2007 |Company: Autodesk,Inc. |WEB Address: www.autodesk.com
 90
    32897
280
     0
281
     0
  0
CLASS
  1
AEC_CLASSIFICATION_DEF
  2
AecDbClassificationDef
  3
AecBase50|Product Desc: Autodesk Architectural Desktop 2007 |Company: Autodesk,Inc. |WEB Address: www.autodesk.com
 90
    32897
280
     0
281
     0
  0
CLASS
  1
AEC_CLEANUP_GROUP_DEF
  2
AecDbCleanupGroupDef
  3
AecArchBase50|Product Desc: Autodesk Architectural Desktop 2007 |Company: Autodesk,Inc. |WEB Address: www.autodesk.com
 90
    32897
280
     0
281
     0
  0
CLASS
  1
AEC_DOOR_STYLE
  2
AecDbDoorStyle
  3
AecArchBase50|Product Desc: Autodesk Architectural Desktop 2007 |Company: Autodesk,Inc. |WEB Address: www.autodesk.com
 90
    32897
280
     0
281
     0
  0
CLASS
  1
AEC_STDSIZE_OPENINGS
  2
AecDbStdSizeOpeningList
  3
AecArchBase50|Product Desc: Autodesk Architectural Desktop 2007 |Company: Autodesk,Inc. |WEB Address: www.autodesk.com
 90
    32897
280
     0
281
     0
  0
CLASS
  1
AEC_ENDCAP_STYLE
  2
AecDbEndcapStyle
  3
AecArchBase50|Product Desc: Autodesk Architectural Desktop 2007 |Company: Autodesk,Inc. |WEB Address: www.autodesk.com
 90
    32897
280
     0
281
     0
  0
CLASS
  1
AEC_MASS_ELEM_STYLE
  2
AecDbMassElemStyle
  3
AecBaseEx50|Product Desc: Autodesk Architectural Desktop 2007 |Company: Autodesk,Inc. |WEB Address: www.autodesk.com
 90
    32897
280
     0
281
     0
  0
CLASS
  1
AEC_MATERIAL_DEF
  2
AecDbMaterialDef
  3
AecBase50|Product Desc: Autodesk Architectural Desktop 2007 |Company: Autodesk,Inc. |WEB Address: www.autodesk.com
 90
    32897
280
     0
281
     0
  0
CLASS
  1
AEC_MVBLOCK_DEF
  2
AecDbMvBlockDef
  3
AecBase50|Product Desc: Autodesk Architectural Desktop 2007 |Company: Autodesk,Inc. |WEB Address: www.autodesk.com
 90
    32897
280
     0
281
     0
  0
CLASS
  1
AEC_FRAME_DEF
  2
AecDbOpeningEndcapStyle
  3
AecArchBase50|Product Desc: Autodesk Architectural Desktop 2007 |Company: Autodesk,Inc. |WEB Address: www.autodesk.com
 90
    32897
280
     0
281
     0
  0
CLASS
  1
AEC_PROFILE_DEF
  2
AecDbProfileDef
  3
AecBase50|Product Desc: Autodesk Architectural Desktop 2007 |Company: Autodesk,Inc. |WEB Address: www.autodesk.com
 90
    32897
280
     0
281
     0
  0
CLASS
  1
AEC_SCHEDULE_DATA_FORMAT
  2
AecDbScheduleDataFormat
  3
AecScheduleData50|Product Desc: Autodesk Architectural Desktop 2007 |Company: Autodesk,Inc. |WEB Address: www.autodesk.com
 90
    32897
280
     0
281
     0
  0
CLASS
  1
AEC_PROPERTY_SET_DEF
  2
AecDbPropertySetDef
  3
AecScheduleData50|Product Desc: Autodesk Architectural Desktop 2007 |Company: Autodesk,Inc. |WEB Address: www.autodesk.com
 90
    32897
280
     0
281
     0
  0
CLASS
  1
AEC_SPACE_STYLES
  2
AecDbSpaceStyle
  3
AecArchBase50|Product Desc: Autodesk Architectural Desktop 2007 |Company: Autodesk,Inc. |WEB Address: www.autodesk.com
 90
    32897
280
     0
281
     0
  0
CLASS
  1
AEC_TEXT_NOTE
  2
AecDbTextNote
  3
AecBase50|Product Desc: Autodesk Architectural Desktop 2007 |Company: Autodesk,Inc. |WEB Address: www.autodesk.com
 90
    32897
280
     0
281
     0
  0
CLASS
  1
AECS_MEMBER_STYLE
  2
AecsDbMemberStyle
  3
AecStructureBase50|Product Desc: Autodesk Architectural Desktop 2007 |Company: Autodesk,Inc. |WEB Address: www.autodesk.com
 90
    32897
280
     0
281
     0
  0
CLASS
  1
AEC_VARS_STRUCTUREBASE
  2
AecsDbVarsStructureBase
  3
AecStructureBase50|Product Desc: Autodesk Architectural Desktop 2007 |Company: Autodesk,Inc. |WEB Address: www.autodesk.com
 90
    32897
280
     0
281
     0
  0
CLASS
  1
AEC_WALL_STYLE
  2
AecDbWallStyle
  3
AecArchBase50|Product Desc: Autodesk Architectural Desktop 2007 |Company: Autodesk,Inc. |WEB Address: www.autodesk.com
 90
    32897
280
     0
281
     0
  0
CLASS
  1
AEC_WINDOW_STYLE
  2
AecDbWindowStyle
  3
AecArchBase50|Product Desc: Autodesk Architectural Desktop 2007 |Company: Autodesk,Inc. |WEB Address: www.autodesk.com
 90
    32897
280
     0
281
     0
  0
CLASS
  1
AECS_MEMBER_NODE_SHAPE
  2
AecsDbMemberNodeShape
  3
AecStructureBase50|Product Desc: Autodesk Architectural Desktop 2007 |Company: Autodesk,Inc. |WEB Address: www.autodesk.com
 90
    32897
280
     0
281
     0
  0
CLASS
  1
AEC_SCHEDULE_TABLE
  2
AecDbScheduleTable
  3
AecSchedule50|Product Desc: Autodesk Architectural Desktop 2007 |Company: Autodesk,Inc. |WEB Address: www.autodesk.com
 90
    33661
280
     0
281
     1
  0
CLASS
  1
AEC_SCHEDULE_TABLE_STYLE
  2
AecDbScheduleTableStyle
  3
AecSchedule50|Product Desc: Autodesk Architectural Desktop 2007 |Company: Autodesk,Inc. |WEB Address: www.autodesk.com
 90
    32897
280
     0
281
     0
  0
CLASS
  1
AEC_ANCHOR_MVB_TO_UCS
  2
AecDbAnchorMVBToUCS
  3
AecBase50|Product Desc: Autodesk Architectural Desktop 2007 |Company: Autodesk,Inc. |WEB Address: www.autodesk.com
 90
    32897
280
     0
281
     0
  0
CLASS
  1
IMAGEDEF
  2
AcDbRasterImageDef
  3
ISM
 90
    32768
280
     0
281
     0
  0
CLASS
  1
AEC_ANCHOR_ENT_TO_GRID_ASSEMBLY
  2
AecDbAnchorEntToGridAssembly
  3
AecBaseEx50|Product Desc: Autodesk Architectural Desktop 2007 |Company: Autodesk,Inc. |WEB Address: www.autodesk.com
 90
    32897
280
     0
281
     0
  0
CLASS
  1
AEC_WINDOW_ASSEMBLY
  2
AecDbWindowAssembly
  3
AecArchBase50|Product Desc: Autodesk Architectural Desktop 2007 |Company: Autodesk,Inc. |WEB Address: www.autodesk.com
 90
    33661
280
     0
281
     1
  0
CLASS
  1
AEC_ANCHOR_WINASSEMBLY_TO_WALL
  2
AecDbAnchorWinAssemblyToWall
  3
AecArchBase50|Product Desc: Autodesk Architectural Desktop 2007 |Company: Autodesk,Inc. |WEB Address: www.autodesk.com
 90
    32897
280
     0
281
     0
  0
CLASS
  1
AEC_STAIR
  2
AecDbStair
  3
AecArchBase50|Product Desc: Autodesk Architectural Desktop 2007 |Company: Autodesk,Inc. |WEB Address: www.autodesk.com
 90
    33661
280
     0
281
     1
  0
CLASS
  1
AEC_RAILING
  2
AecDbRailing
  3
AecArchBase50|Product Desc: Autodesk Architectural Desktop 2007 |Company: Autodesk,Inc. |WEB Address: www.autodesk.com
 90
    33661
280
     0
281
     1
  0
CLASS
  1
AEC_ANCHOR_RAILING_TO_STAIR
  2
AecDbAnchorRailingToStair
  3
AecArchBase50|Product Desc: Autodesk Architectural Desktop 2007 |Company: Autodesk,Inc. |WEB Address: www.autodesk.com
 90
    32897
280
     0
281
     0
  0
CLASS
  1
AEC_RAILING_STYLE
  2
AecDbRailingStyle
  3
AecArchBase50|Product Desc: Autodesk Architectural Desktop 2007 |Company: Autodesk,Inc. |WEB Address: www.autodesk.com
 90
    32897
280
     0
281
     0
  0
CLASS
  1
AEC_STAIR_STYLE
  2
AecDbStairStyle
  3
AecArchBase50|Product Desc: Autodesk Architectural Desktop 2007 |Company: Autodesk,Inc. |WEB Address: www.autodesk.com
 90
    32897
280
     0
281
     0
  0
CLASS
  1
AEC_STAIR_WINDER_STYLE
  2
AecDbStairWinderStyle
  3
AecArchBase50|Product Desc: Autodesk Architectural Desktop 2007 |Company: Autodesk,Inc. |WEB Address: www.autodesk.com
 90
    32897
280
     0
281
     0
  0
CLASS
  1
AEC_STAIR_WINDER_TYPE_SINGLE_POINT
  2
AecDbStairWinderTypeSinglePoint
  3
AecArchBase50|Product Desc: Autodesk Architectural Desktop 2007 |Company: Autodesk,Inc. |WEB Address: www.autodesk.com
 90
    32897
280
     0
281
     0
  0
CLASS
  1
AEC_WINDOW_ASSEMBLY_STYLE
  2
AecDbWindowAssemblyStyle
  3
AecArchBase50|Product Desc: Autodesk Architectural Desktop 2007 |Company: Autodesk,Inc. |WEB Address: www.autodesk.com
 90
    32897
280
     0
281
     0
  0
CLASS
  1
AEC_AECDBAREASTYLE
  2
AecDbAreaStyle
  3
AecAreaCalculationBase50|Product Desc: Autodesk Architectural Desktop 2007 |Company: Autodesk,Inc. |WEB Address: www.autodesk.com
 90
    32897
280
     0
281
     0
  0
CLASS
  1
AEC_AECDBAREAPROPOSALNAMES
  2
AecDbAreaProposalNames
  3
AecAreaCalculationBase50|Product Desc: Autodesk Architectural Desktop 2007 |Company: Autodesk,Inc. |WEB Address: www.autodesk.com
 90
    32897
280
     0
281
     0
  0
CLASS
  1
AEC_AREA
  2
AecDbArea
  3
AecAreaCalculationBase50|Product Desc: Autodesk Architectural Desktop 2007 |Company: Autodesk,Inc. |WEB Address: www.autodesk.com
 90
    33661
280
     0
281
     1
  0
CLASS
  1
OBJECT_PTR
  2
CAseDLPNTableRecord
  3
ASE-LPNTableRecord
 90
    32769
280
     0
281
     0
  0
CLASS
  1
TABLESTYLE
  2
AcDbTableStyle
  3
ObjectDBX Classes
 90
     4095
280
     0
281
     0
  0
CLASS
  1
AEC_DISP_REP_DISPLAYTHEME
  2
AecDbDispRepDisplayTheme
  3
AecBase50|Product Desc: Autodesk Architectural Desktop 2007 |Company: Autodesk,Inc. |WEB Address: www.autodesk.com
 90
    32897
280
     0
281
     0
  0
CLASS
  1
AEC_DISP_PROPS_DISPLAYTHEME
  2
AecDbDispPropsDisplayTheme
  3
AecBase50|Product Desc: Autodesk Architectural Desktop 2007 |Company: Autodesk,Inc. |WEB Address: www.autodesk.com
 90
    32897
280
     0
281
     0
  0
CLASS
  1
AEC_DISP_REP_ANCHOR_EXT_TAG_TO_ENT
  2
AecDbDispRepAnchorExtendedTagToEnt
  3
AecScheduleData50|Product Desc: Autodesk Architectural Desktop 2007 |Company: Autodesk,Inc. |WEB Address: www.autodesk.com
 90
    32897
280
     0
281
     0
  0
CLASS
  1
VISUALSTYLE
  2
AcDbVisualStyle
  3
ObjectDBX Classes
 90
     4095
280
     0
281
     0
  0
CLASS
  1
AEC_AECDBDISPREPZONE100
  2
AecDbDispRepZonePlan100
  3
AecArchDACHBase50|Product Desc: Autodesk Architectural Desktop 2007 |Company: Autodesk,Inc. |WEB Address: www.autodesk.com
 90
    32897
280
     0
281
     0
  0
CLASS
  1
AEC_DISP_PROPS_ZONE
  2
AecDbDispPropsZone
  3
AecArchBase50|Product Desc: Autodesk Architectural Desktop 2007 |Company: Autodesk,Inc. |WEB Address: www.autodesk.com
 90
    32897
280
     0
281
     0
  0
CLASS
  1
AEC_AECDBDISPREPZONE50
  2
AecDbDispRepZonePlan50
  3
AecArchDACHBase50|Product Desc: Autodesk Architectural Desktop 2007 |Company: Autodesk,Inc. |WEB Address: www.autodesk.com
 90
    32897
280
     0
281
     0
  0
CLASS
  1
AEC_DISP_REP_SPACE_DECOMPOSED
  2
AecDbDispRepSpaceDecomposed
  3
AecArchBase50|Product Desc: Autodesk Architectural Desktop 2007 |Company: Autodesk,Inc. |WEB Address: www.autodesk.com
 90
    32897
280
     0
281
     0
  0
CLASS
  1
AEC_DISP_PROPS_SPACE_DECOMPOSED
  2
AecDbDispPropsSpaceDecomposed
  3
AecArchBase50|Product Desc: Autodesk Architectural Desktop 2007 |Company: Autodesk,Inc. |WEB Address: www.autodesk.com
 90
    32897
280
     0
281
     0
  0
CLASS
  1
AEC_DISP_REP_ZONE
  2
AecDbDispRepZone
  3
AecArchBase50|Product Desc: Autodesk Architectural Desktop 2007 |Company: Autodesk,Inc. |WEB Address: www.autodesk.com
 90
    32897
280
     0
281
     0
  0
CLASS
  1
AEC_LIST_DEF
  2
AecDbListDefinition
  3
AecBase50|Product Desc: Autodesk Architectural Desktop 2007 |Company: Autodesk,Inc. |WEB Address: www.autodesk.com
 90
    32897
280
     0
281
     0
  0
CLASS
  1
EXACXREFPANELOBJECT
  2
ExAcXREFPanelObject
  3
EXAC_ESW
 90
    33793
280
     1
281
     0
  0
CLASS
  1
NPOCOLLECTION
  2
AcDbImpNonPersistentObjectsCollection
  3
ObjectDBX Classes
 90
    33921
280
     0
281
     0
  0
CLASS
  1
AEC_LIST_DEF
  2
AecDbListItem
  3
AecBase50|Product Desc: Autodesk Architectural Desktop 2007 |Company: Autodesk,Inc. |WEB Address: www.autodesk.com
 90
    32897
280
     0
281
     0
  0
CLASS
  1
AEC_ROOFSLAB_STYLE
  2
AecDbRoofSlabStyle
  3
AecArchBase50|Product Desc: Autodesk Architectural Desktop 2007 |Company: Autodesk,Inc. |WEB Address: www.autodesk.com
 90
    32897
280
     0
281
     0
  0
CLASS
  1
AEC_ROOFSLABEDGE_STYLE
  2
AecDbRoofSlabEdgeStyle
  3
AecArchBase50|Product Desc: Autodesk Architectural Desktop 2007 |Company: Autodesk,Inc. |WEB Address: www.autodesk.com
 90
    32897
280
     0
281
     0
  0
CLASS
  1
AEC_SLAB_STYLE
  2
AecDbSlabStyle
  3
AecArchBase50|Product Desc: Autodesk Architectural Desktop 2007 |Company: Autodesk,Inc. |WEB Address: www.autodesk.com
 90
    32897
280
     0
281
     0
  0
CLASS
  1
AEC_SLABEDGE_STYLE
  2
AecDbSlabEdgeStyle
  3
AecArchBase50|Product Desc: Autodesk Architectural Desktop 2007 |Company: Autodesk,Inc. |WEB Address: www.autodesk.com
 90
    32897
280
     0
281
     0
  0
CLASS
  1
ACAD_EVALUATION_GRAPH
  2
AcDbEvalGraph
  3
ObjectDBX Classes
 90
    33921
280
     0
281
     0
  0
CLASS
  1
BLOCKLINEARPARAMETER
  2
AcDbBlockLinearParameter
  3
ObjectDBX Classes
 90
    33921
280
     0
281
     0
  0
CLASS
  1
BLOCKMOVEACTION
  2
AcDbBlockMoveAction
  3
ObjectDBX Classes
 90
    33921
280
     0
281
     0
  0
CLASS
  1
BLOCKVISIBILITYPARAMETER
  2
AcDbBlockVisibilityParameter
  3
ObjectDBX Classes
 90
    33921
280
     0
281
     0
  0
CLASS
  1
BLOCKLOOKUPPARAMETER
  2
AcDbBlockLookupParameter
  3
ObjectDBX Classes
 90
    33921
280
     0
281
     0
  0
CLASS
  1
BLOCKLOOKUPGRIP
  2
AcDbBlockLookupGrip
  3
ObjectDBX Classes
 90
    33921
280
     0
281
     0
  0
CLASS
  1
BLOCKGRIPLOCATIONCOMPONENT
  2
AcDbBlockGripExpr
  3
ObjectDBX Classes
 90
    33921
280
     0
281
     0
  0
CLASS
  1
BLOCKLOOKUPACTION
  2
AcDbBlockLookupAction
  3
ObjectDBX Classes
 90
    33921
280
     0
281
     0
  0
CLASS
  1
ACDB_DYNAMICBLOCKPURGEPREVENTER_VERSION
  2
AcDbDynamicBlockPurgePreventer
  3
ObjectDBX Classes
 90
    33921
280
     0
281
     0
  0
CLASS
  1
ACDB_BLOCKREPRESENTATION_DATA
  2
AcDbBlockRepresentationData
  3
ObjectDBX Classes
 90
    33921
280
     0
281
     0
  0
CLASS
  1
SOLID_BACKGROUND
  2
AcDbSolidBackground
  3
SCENEOE
 90
    36863
280
     0
281
     0
  0
CLASS
  1
BLOCKLINEARGRIP
  2
AcDbBlockLinearGrip
  3
ObjectDBX Classes
 90
    33921
280
     0
281
     0
  0
CLASS
  1
BLOCKARRAYACTION
  2
AcDbBlockArrayAction
  3
ObjectDBX Classes
 90
    33921
280
     0
281
     0
  0
CLASS
  1
BLOCKSTRETCHACTION
  2
AcDbBlockStretchAction
  3
ObjectDBX Classes
 90
    33921
280
     0
281
     0
  0
CLASS
  1
BLOCKBASEPOINTPARAMETER
  2
AcDbBlockBasepointParameter
  3
ObjectDBX Classes
 90
    33921
280
     0
281
     0
  0
CLASS
  1
BLOCKFLIPPARAMETER
  2
AcDbBlockFlipParameter
  3
ObjectDBX Classes
 90
    33921
280
     0
281
     0
  0
CLASS
  1
BLOCKFLIPGRIP
  2
AcDbBlockFlipGrip
  3
ObjectDBX Classes
 90
    33921
280
     0
281
     0
  0
CLASS
  1
BLOCKFLIPACTION
  2
AcDbBlockFlipAction
  3
ObjectDBX Classes
 90
    33921
280
     0
281
     0
  0
CLASS
  1
DIMASSOC
  2
AcDbDimAssoc
  3
"AcDbDimAssoc|Product Desc:     AcDim ARX App For Dimension|Company:          Autodesk, Inc.|WEB Address:      www.autodesk.com"
 90
    32768
280
     0
281
     0
  0
CLASS
  1
SCALE
  2
AcDbScale
  3
ObjectDBX Classes
 90
     1153
280
     0
281
     0
  0
CLASS
  1
MLEADERSTYLE
  2
AcDbMLeaderStyle
  3
ACDB_MLEADERSTYLE_CLASS
 90
     4095
280
     0
281
     0
  0
CLASS
  1
CELLSTYLEMAP
  2
AcDbCellStyleMap
  3
ObjectDBX Classes
 90
     1152
280
     0
281
     0
  0
CLASS
  1
AEC_REFEDIT_STATUS_TRACKER
  2
AecDbRefEditStatusTracker
  3
AecArchBase50|Product Desc: Autodesk Architectural Desktop 2007 |Company: Autodesk,Inc. |WEB Address: www.autodesk.com
 90
    32897
280
     0
281
     0
  0
ENDSEC
  0
SECTION
  2
TABLES
  0
TABLE
  2
VPORT
  5
2CC
330
0
100
AcDbSymbolTable
 70
     1
  0
VPORT
  5
2CD
330
2CC
100
AcDbSymbolTableRecord
100
AcDbViewportTableRecord
  2
*Active
 70
     0
 10
0.0
 20
0.0
 11
1.0
 21
1.0
 12
1339.313301047492
 22
-10995.60203089085
 13
-3534.953416816247
 23
4038.000000000049
 14
1.0
 24
1.0
 15
1.0
 25
1.0
 16
0.0
 26
0.0
 36
1.0
 17
2068.755946002077
 27
2190.297917959126
 37
4259.053863961203
 40
5698.7696091633
 41
2.297668038408779
 42
50.0
 43
0.0
 44
0.0
 50
0.0
 51
0.0
 71
     0
 72
  2000
 73
     1
 74
     1
 75
     0
 76
     0
 77
     0
 78
     0
281
     0
 65
     1
110
0.0
120
0.0
130
0.0
111
1.0
121
0.0
131
0.0
112
0.0
122
1.0
132
0.0
 79
     0
146
0.0
  0
ENDTAB
  0
TABLE
  2
LTYPE
  5
2C7
330
0
100
AcDbSymbolTable
 70
     3
  0
LTYPE
  5
2C8
330
2C7
100
AcDbSymbolTableRecord
100
AcDbLinetypeTableRecord
  2
BYBLOCK
 70
     0
  3

 72
    65
 73
     0
 40
0.0
  0
LTYPE
  5
2C9
330
2C7
100
AcDbSymbolTableRecord
100
AcDbLinetypeTableRecord
  2
BYLAYER
 70
     0
  3

 72
    65
 73
     0
 40
0.0
  0
LTYPE
  5
E
330
2C7
100
AcDbSymbolTableRecord
100
AcDbLinetypeTableRecord
  2
CONTINUOUS
 70
     0
  3
Solid line
 72
    65
 73
     0
 40
0.0
  0
LTYPE
  5
14
330
2C7
100
AcDbSymbolTableRecord
100
AcDbLinetypeTableRecord
  2
HIDDEN
 70
     0
  3
Hidden __ __ __ __ __ __ __ __ __ __ __ __ __
 72
    65
 73
     2
 40
9.524999999999996
 49
6.349999999999997
 74
     0
 49
-3.174999999999998
 74
     0
  0
LTYPE
  5
A0
330
2C7
100
AcDbSymbolTableRecord
100
AcDbLinetypeTableRecord
  2
PARTER$0$HIDDEN2
 70
     0
  3
Hidden (.5x) _ _ _ _ _ _ _ _ _ _ _ _ _ _ _ _ _
 72
    65
 73
     2
 40
0.1875
 49
0.125
 74
     0
 49
-0.0625
 74
     0
  0
ENDTAB
  0
TABLE
  2
LAYER
  5
2C0
102
{ACAD_XDICTIONARY
360
2C1
102
}
330
0
100
AcDbSymbolTable
 70
     1
  0
LAYER
  5
6
102
{ACAD_XDICTIONARY
360
7
102
}
330
2C0
100
AcDbSymbolTableRecord
100
AcDbLayerTableRecord
  2
0
 70
     0
 62
     7
  6
CONTINUOUS
370
    -3
390
9
1001
RAK
1000
{ACET-LAYISO
1070
     0
1070
     7
1000
CONTINUOUS
1070
     1
1071
       -3
1071
        1
1005
9
1000
ACET-LAYISO}
  0
ENDTAB
  0
TABLE
  2
STYLE
  5
2C4
330
0
100
AcDbSymbolTable
 70
     3
  0
STYLE
  5
2C5
330
2C4
100
AcDbSymbolTableRecord
100
AcDbTextStyleTableRecord
  2
STANDARD
 70
     0
 40
0.0
 41
1.0
 50
0.0
 71
     0
 42
0.2
  3
txt
  4

  0
STYLE
  5
24B
330
2C4
100
AcDbSymbolTableRecord
100
AcDbTextStyleTableRecord
  2
ROMANS
 70
     0
 40
0.0
 41
0.9
 50
0.0
 71
     0
 42
5.0
  3
romans.shx
  4

  0
STYLE
  5
11
330
2C4
100
AcDbSymbolTableRecord
100
AcDbTextStyleTableRecord
  2
AVA
 70
     0
 40
0.0
 41
1.0
 50
0.0
 71
     0
 42
158.5644099714409
  3
ARIAL.TTF
  4

1001
ACAD
1000
Arial CE
1071
    60962
  0
ENDTAB
  0
TABLE
  2
VIEW
  5
2CA
330
0
100
AcDbSymbolTable
 70
     1
  0
VIEW
  5
2B6
330
2CA
100
AcDbSymbolTableRecord
100
AcDbViewTableRecord
  2
10-ele
 70
     0
 40
2040.000000000001
 10
597.6361962217097
 20
4133.999999999995
 41
2803.999999999998
 11
0.0
 21
0.0
 31
1.0
 12
0.0
 22
0.0
 32
0.0
 42
50.0
 43
0.0
 44
0.0
 50
0.0
 71
     0
281
     0
 72
     1
110
0.0
120
0.0
130
0.0
111
1.0
121
0.0
131
0.0
112
0.0
122
1.0
132
0.0
 79
     0
146
0.0
  0
ENDTAB
  0
TABLE
  2
UCS
  5
2CB
330
0
100
AcDbSymbolTable
 70
     0
  0
ENDTAB
  0
TABLE
  2
APPID
  5
2CE
330
0
100
AcDbSymbolTable
 70
     7
  0
APPID
  5
12
330
2CE
100
AcDbSymbolTableRecord
100
AcDbRegAppTableRecord
  2
ACAD
 70
     0
  0
APPID
  5
F
330
2CE
100
AcDbSymbolTableRecord
100
AcDbRegAppTableRecord
  2
RAK
 70
     0
  0
APPID
  5
2B9
330
2CE
100
AcDbSymbolTableRecord
100
AcDbRegAppTableRecord
  2
ACAD_PSEXT
 70
     0
  0
APPID
  5
2C3
330
2CE
100
AcDbSymbolTableRecord
100
AcDbRegAppTableRecord
  2
AcLayerTools
 70
     0
  0
APPID
  5
329
330
2CE
100
AcDbSymbolTableRecord
100
AcDbRegAppTableRecord
  2
ACAD_MLEADERVER
 70
     0
  0
APPID
  5
32E
330
2CE
100
AcDbSymbolTableRecord
100
AcDbRegAppTableRecord
  2
ACAD_EXEMPT_FROM_CAD_STANDARDS
 70
     0
  0
APPID
  5
33A
330
2CE
100
AcDbSymbolTableRecord
100
AcDbRegAppTableRecord
  2
DCO15
 70
     0
  0
ENDTAB
  0
TABLE
  2
DIMSTYLE
  5
2CF
330
0
100
AcDbSymbolTable
 70
     2
100
AcDbDimStyleTable
 71
     1
340
2D0
  0
DIMSTYLE
105
2D0
330
2CF
100
AcDbSymbolTableRecord
100
AcDbDimStyleTableRecord
  2
100-PR
 70
     0
 41
15.0
 42
43.0
 43
24.0
 44
13.0
 45
0.5
 46
12.0
 73
     0
 74
     0
 75
     1
 76
     1
 77
     1
 78
     8
140
30.0
141
0.0
145
1.0
147
12.0
172
     1
174
     1
176
     7
177
     1
178
   140
271
     1
272
     1
279
     2
340
24B
341
2D1
342
2D6
371
     5
  0
ENDTAB
  0
TABLE
  2
BLOCK_RECORD
  5
1
330
0
100
AcDbSymbolTable
 70
     2
  0
BLOCK_RECORD
  5
2
102
{ACAD_XDICTIONARY
360
3
102
}
330
1
100
AcDbSymbolTableRecord
100
AcDbBlockTableRecord
  2
*MODEL_SPACE
340
2B4
  0
BLOCK_RECORD
  5
2BA
330
1
100
AcDbSymbolTableRecord
100
AcDbBlockTableRecord
  2
*Paper_Space
340
2BD
  0
BLOCK_RECORD
  5
2D1
330
1
100
AcDbSymbolTableRecord
100
AcDbBlockTableRecord
  2
_Dot
340
0
  0
BLOCK_RECORD
  5
2D6
330
1
100
AcDbSymbolTableRecord
100
AcDbBlockTableRecord
  2
B-DIM_K
340
0
310
2800000020000000200000000100080000000000000400000000000000000000000000000000000000000000000080000080000000808000800000008000800080800000C0C0C000C0DCC000F0CAA6000020400000206000002080000020A0000020C0000020E00000400000004020000040400000406000004080000040A0
310
000040C0000040E00000600000006020000060400000606000006080000060A0000060C0000060E00000800000008020000080400000806000008080000080A0000080C0000080E00000A0000000A0200000A0400000A0600000A0800000A0A00000A0C00000A0E00000C0000000C0200000C0400000C0600000C0800000C0
310
A00000C0C00000C0E00000E0000000E0200000E0400000E0600000E0800000E0A00000E0C00000E0E00040000000400020004000400040006000400080004000A0004000C0004000E00040200000402020004020400040206000402080004020A0004020C0004020E000404000004040200040404000404060004040800040
310
40A0004040C0004040E00040600000406020004060400040606000406080004060A0004060C0004060E00040800000408020004080400040806000408080004080A0004080C0004080E00040A0000040A0200040A0400040A0600040A0800040A0A00040A0C00040A0E00040C0000040C0200040C0400040C0600040C08000
310
40C0A00040C0C00040C0E00040E0000040E0200040E0400040E0600040E0800040E0A00040E0C00040E0E00080000000800020008000400080006000800080008000A0008000C0008000E00080200000802020008020400080206000802080008020A0008020C0008020E00080400000804020008040400080406000804080
310
008040A0008040C0008040E00080600000806020008060400080606000806080008060A0008060C0008060E00080800000808020008080400080806000808080008080A0008080C0008080E00080A0000080A0200080A0400080A0600080A0800080A0A00080A0C00080A0E00080C0000080C0200080C0400080C0600080C0
310
800080C0A00080C0C00080C0E00080E0000080E0200080E0400080E0600080E0800080E0A00080E0C00080E0E000C0000000C0002000C0004000C0006000C0008000C000A000C000C000C000E000C0200000C0202000C0204000C0206000C0208000C020A000C020C000C020E000C0400000C0402000C0404000C0406000C0
310
408000C040A000C040C000C040E000C0600000C0602000C0604000C0606000C0608000C060A000C060C000C060E000C0800000C0802000C0804000C0806000C0808000C080A000C080C000C080E000C0A00000C0A02000C0A04000C0A06000C0A08000C0A0A000C0A0C000C0A0E000C0C00000C0C02000C0C04000C0C06000
310
C0C08000C0C0A000F0FBFF00A4A0A000808080000000FF0000FF000000FFFF00FF000000FF00FF00FFFF0000FFFFFF0000000000000000000000000000000000000000000000000000000000000000000000000000000000000000000000000000000000000000000000000000000000000000000000000000000000000000
310
0000000000000000000000000000000000000000000000000000000000000000FF00000000000000000000000000000000000000000000000000000000000000FF00000000000000000000000000000000000000000000000000000000000000FF000000000000000000000000000000000000000000000000000000000000
310
00FF0000000000000000000000000000000000000000000000FF00000000000000FF000000000000000000000000000000000000000000000000FF000000000000FF00000000000000000000000000000000000000000000000000FF0000000000FF0000000000000000000000000000000000000000000000000000FF0000
310
0000FF000000000000000000000000000000000000000000000000000000FF000000FF00000000000000000000000000000000000000000000000000000000FF0000FF0000000000000000000000000000000000000000000000000000000000FF00FF00000000000000000000000000000000000000000000000000000000
310
0000FFFF00000000000000000000000000000000000000000000000000000000000000FF0000000000000000000000000000000000FFFFFFFFFFFFFFFFFFFFFFFFFFFFFFFFFFFFFFFFFFFFFFFFFFFFFFFFFF0000000000000000000000000000000000FF00FF00000000000000000000000000000000000000000000000000
310
00000000FF0000FF00000000000000000000000000000000000000000000000000000000FF000000FF000000000000000000000000000000000000000000000000000000FF00000000FF0000000000000000000000000000000000000000000000000000FF0000000000FF0000000000000000000000000000000000000000
310
0000000000FF000000000000FF000000000000000000000000000000000000000000000000FF00000000000000FF0000000000000000000000000000000000000000000000FF00000000000000000000000000000000000000000000000000000000000000FF00000000000000000000000000000000000000000000000000
310
000000000000FF00000000000000000000000000000000000000000000000000000000000000FF00000000000000000000000000000000000000000000000000000000000000000000000000000000000000000000000000000000000000000000000000000000000000000000000000000000000000000000000000000000
310
0000000000000000000000000000000000000000000000000000000000000000000000000000000000000000000000000000000000000000
1001
ACAD
1000
DesignCenter Data
1002
{
1070
     1
1070
     1
1002
}
  0
ENDTAB
  0
ENDSEC
  0
SECTION
  2
BLOCKS
  0
BLOCK
  5
5
330
2
100
AcDbEntity
  8
0
100
AcDbBlockBegin
  2
*MODEL_SPACE
 70
     0
 10
0.0
 20
0.0
 30
0.0
  3
*MODEL_SPACE
  1

  0
ENDBLK
  5
2B3
330
2
100
AcDbEntity
  8
0
100
AcDbBlockEnd
  0
BLOCK
  5
2BB
330
2BA
100
AcDbEntity
 67
     1
  8
0
 48
4.0
100
AcDbBlockBegin
  2
*Paper_Space
 70
     0
 10
0.0
 20
0.0
 30
0.0
  3
*Paper_Space
  1

  0
ENDBLK
  5
2BC
330
2BA
100
AcDbEntity
 67
     1
  8
0
 48
4.0
100
AcDbBlockEnd
  0
BLOCK
  5
2D2
330
2D1
100
AcDbEntity
  8
0
 48
4.0
100
AcDbBlockBegin
  2
_Dot
 70
     0
 10
0.0
 20
0.0
 30
0.0
  3
_Dot
  1

  0
LWPOLYLINE
  5
2D3
330
2D1
100
AcDbEntity
  8
0
  6
ByBlock
 62
     0
100
AcDbPolyline
 90
        2
 70
     1
 43
0.5
 10
-0.25
 20
0.0
 42
1.0
 10
0.25
 20
0.0
 42
1.0
  0
LINE
  5
2D4
330
2D1
100
AcDbEntity
  8
0
  6
ByBlock
 62
     0
370
    -2
100
AcDbLine
 10
-0.5
 20
0.0
 30
0.0
 11
-1.0
 21
0.0
 31
0.0
  0
ENDBLK
  5
2D5
330
2D1
100
AcDbEntity
  8
0
100
AcDbBlockEnd
  0
BLOCK
  5
2D7
330
2D6
100
AcDbEntity
  8
0
 48
4.0
100
AcDbBlockBegin
  2
B-DIM_K
 70
     0
 10
0.0
 20
0.0
 30
0.0
  3
B-DIM_K
  1

  0
LINE
  5
2D8
330
2D6
100
AcDbEntity
  8
0
 62
     7
100
AcDbLine
 10
-0.0000000000002274
 20
-1.100000000000362
 30
0.0
 11
-0.0000000000002274
 21
1.100000000000362
 31
0.0
  0
LWPOLYLINE
  5
2D9
330
2D6
100
AcDbEntity
  8
0
 62
     7
100
AcDbPolyline
 90
        2
 70
     0
 43
0.0
 10
-0.7071067811868943
 20
-0.707106781186667
 10
0.7071067811864396
 20
0.707106781186667
  0
LINE
  5
2DA
330
2D6
100
AcDbEntity
  8
0
 62
     7
100
AcDbLine
 10
1.200000000000043
 20
0.0
 30
0.0
 11
-1.200000000000043
 21
0.0
 31
0.0
  0
ENDBLK
  5
2DB
330
2D6
100
AcDbEntity
  8
0
 48
4.0
100
AcDbBlockEnd
  0
ENDSEC
  0
SECTION
  2
ENTITIES
  0
TEXT
  5
10
330
2
100
AcDbEntity
  8
0
370
     5
100
AcDbText
 10
-61.94932566768692
 20
-17372.09841190028
 30
0.0
 40
100.0
  1
   O B R Y S   B U D Y N K U           S K A L A   1 : 5 0 0 
  7
AVA
100
AcDbText
  0
LINE
  5
13
330
2
100
AcDbEntity
  8
0
  6
HIDDEN
 62
     1
 48
2.0
370
     5
100
AcDbLine
 10
3691.387917935041
 20
-13397.56894518109
 30
0.0
 11
3691.387917935041
 21
-6719.182903009877
 31
0.0
  0
TEXT
  5
15
330
2
100
AcDbEntity
  8
0
370
     5
100
AcDbText
 10
3631.866740941688
 20
-13182.79974192229
 30
0.0
 40
100.0
  1
OŚ ODBICIA LUSTRZANEGO
 50
90.0
  7
AVA
100
AcDbText
  0
TEXT
  5
16
330
2
100
AcDbEntity
  8
0
370
     5
100
AcDbText
 10
34.26372545021151
 20
-4908.733151018418
 30
0.0
 40
150.0
  1
MOŻNA WKLEIĆ DO PROJEKTU ZAGOSPODAROWANIA TERENU
  7
AVA
100
AcDbText
  0
TEXT
  5
17
330
2
100
AcDbEntity
  8
0
370
     5
100
AcDbText
 10
-42.07154518493188
 20
-4578.864673655655
 30
0.0
 40
150.0
  1
"DOM  W  LEWKONIACH 3"
  7
AVA
100
AcDbText
  0
LINE
  5
18
330
2
100
AcDbEntity
  8
0
370
     5
100
AcDbLine
 10
1972.34552712479
 20
-9115.373830303841
 30
0.0000000000000553
 11
2025.735572792241
 21
-9115.373830303841
 31
0.0000000000000553
  0
LINE
  5
19
330
2
100
AcDbEntity
  8
0
370
     5
100
AcDbLine
 10
2025.735572792241
 20
-9115.373830303841
 30
0.0000000000000553
 11
2025.735572792241
 21
-9168.763875971292
 31
0.0000000000000079
  0
LINE
  5
1A
330
2
100
AcDbEntity
  8
0
370
     5
100
AcDbLine
 10
2025.735572792241
 20
-9168.763875971292
 30
0.0000000000000079
 11
1972.34552712479
 21
-9168.627471467679
 31
0.000000000000008
  0
LINE
  5
1B
330
2
100
AcDbEntity
  8
0
370
     5
100
AcDbLine
 10
1972.34552712479
 20
-9168.627471467679
 30
0.000000000000008
 11
1972.34552712479
 21
-9115.373830303841
 31
0.0000000000000553
  0
LINE
  5
1C
330
2
100
AcDbEntity
  8
0
370
     5
100
AcDbLine
 10
2039.386856732728
 20
-8069.606386064499
 30
0.0000000000009841
 11
2039.386856732736
 21
-7909.60638606449
 31
0.0000000000011262
  0
LINE
  5
1D
330
2
100
AcDbEntity
  8
0
  6
Continuous
 62
   210
370
     5
100
AcDbLine
 10
2441.886856732732
 20
-7900.378856749954
 30
0.0000000000011344
 11
2471.886856732734
 21
-7900.378856749951
 31
0.0000000000011344
  0
HATCH
  5
1E
330
2
100
AcDbEntity
  8
0
 48
4.0
370
     5
100
AcDbHatch
 10
0.0
 20
0.0
 30
0.0000000000081514
210
0.0
220
-0.0000000000000009
230
1.0
  2
SOLID
 70
     1
 71
     0
 91
        1
 92
        7
 72
     0
 73
     1
 93
        4
 10
2064.216856732727
 20
-8067.914271623363
 10
2044.386856732726
 20
-8067.914271623362
 10
2044.386856732726
 20
-8069.606386064497
 10
2064.216856732727
 20
-8069.606386064497
 97
        0
 75
     0
 76
     1
 47
0.1075416014029087
 98
        1
 10
2051.825058468072
 20
-8068.842511897775
1001
ACAD
1010
0.0
1020
0.0
1030
0.0
  0
HATCH
  5
1F
330
2
100
AcDbEntity
  8
0
 48
4.0
370
     5
100
AcDbHatch
 10
0.0
 20
0.0
 30
0.0000000000081514
210
0.0
220
-0.0000000000000009
230
1.0
  2
SOLID
 70
     1
 71
     0
 91
        1
 92
        7
 72
     0
 73
     1
 93
        4
 10
2044.386856732728
 20
-8067.914271623362
 10
2039.386856732728
 20
-8067.914271623362
 10
2039.386856732728
 20
-8069.606386064497
 10
2044.386856732726
 20
-8069.606386064497
 97
        0
 75
     0
 76
     1
 47
0.1075416014029087
 98
        1
 10
2042.141562100398
 20
-8069.057617448015
1001
ACAD
1010
0.0
1020
0.0
1030
0.0
  0
LINE
  5
20
330
2
100
AcDbEntity
  8
0
  6
Continuous
 62
   210
370
     5
100
AcDbLine
 10
2734.383527898361
 20
-8492.914272307228
 30
0.0000000000006082
 11
2734.561620533767
 21
-8225.414271623353
 31
0.0000000000008457
  0
LINE
  5
21
330
2
100
AcDbEntity
  8
0
  6
Continuous
 62
   210
370
     5
100
AcDbLine
 10
2034.386856732735
 20
-9252.914272174937
 30
-0.0000000000000669
 11
2064.386856732736
 21
-9252.914272174932
 31
-0.0000000000000669
  0
LINE
  5
22
330
2
100
AcDbEntity
  8
0
  6
Continuous
 62
   210
370
     5
100
AcDbLine
 10
2644.386856732739
 20
-8672.914272174953
 30
0.0000000000004483
 11
2734.386856732744
 21
-8672.914272174947
 31
0.0000000000004483
  0
LINE
  5
23
330
2
100
AcDbEntity
  8
0
  6
Continuous
 62
   210
370
     5
100
AcDbLine
 10
2644.386856732739
 20
-8492.914272174948
 30
0.0000000000006082
 11
2734.386856732744
 21
-8492.914272174948
 31
0.0000000000006082
  0
LINE
  5
24
330
2
100
AcDbEntity
  8
0
  6
Continuous
 62
   210
370
     5
100
AcDbLine
 10
2674.386856732739
 20
-8492.914272174948
 30
0.0000000000006082
 11
2674.386856732739
 21
-8672.914272174951
 31
0.0000000000004483
  0
LINE
  5
25
330
2
100
AcDbEntity
  8
0
  6
Continuous
 62
   210
370
     5
100
AcDbLine
 10
2704.386856732743
 20
-8492.914272174948
 30
0.0000000000006082
 11
2704.386856732743
 21
-8672.914272174947
 31
0.0000000000004483
  0
LINE
  5
26
330
2
100
AcDbEntity
  8
0
  6
Continuous
 62
   210
370
     5
100
AcDbLine
 10
2734.386856732744
 20
-8672.914272174947
 30
0.0000000000004483
 11
2734.386856732744
 21
-8492.914272174948
 31
0.0000000000006082
  0
LINE
  5
27
330
2
100
AcDbEntity
  8
0
  6
Continuous
 62
   210
370
     5
100
AcDbLine
 10
1713.386856374081
 20
-9201.624272174942
 30
-0.0000000000000213
 11
2034.386856732735
 21
-9201.624272174937
 31
-0.0000000000000213
  0
LINE
  5
28
330
2
100
AcDbEntity
  8
0
  6
Continuous
 62
   210
370
     5
100
AcDbLine
 10
1713.38685637408
 20
-9231.62427217494
 30
-0.0000000000000479
 11
2034.386856732735
 21
-9231.624272174938
 31
-0.0000000000000479
  0
HATCH
  5
29
330
2
100
AcDbEntity
  8
0
 48
4.0
370
     5
100
AcDbHatch
 10
0.0
 20
0.0
 30
0.0000000000081514
210
0.0
220
-0.0000000000000009
230
1.0
  2
SOLID
 70
     1
 71
     0
 91
        1
 92
        7
 72
     0
 73
     1
 93
        4
 10
1756.348186340647
 20
-9115.373830303841
 10
1718.386856374081
 20
-9115.373830303841
 10
1718.386856374081
 20
-9154.373813221296
 10
1756.348186340647
 20
-9154.373813221296
 97
        0
 75
     0
 76
     1
 47
0.3637271929300079
 98
        1
 10
1731.613861236481
 20
-9132.151184656684
1001
ACAD
1010
0.0
1020
0.0
1030
0.0
  0
HATCH
  5
2A
330
2
100
AcDbEntity
  8
0
 48
4.0
370
     5
100
AcDbHatch
 10
0.0
 20
0.0
 30
0.0000000000081514
210
0.0
220
-0.0000000000000009
230
1.0
  2
SOLID
 70
     1
 71
     0
 91
        1
 92
        7
 72
     0
 73
     1
 93
        4
 10
1756.348186340647
 20
-9159.373813221296
 10
1718.386856374081
 20
-9159.373813221296
 10
1718.386856374081
 20
-9168.627471467679
 10
1756.348186340647
 20
-9168.627471467679
 97
        0
 75
     0
 76
     1
 47
0.3637271929300079
 98
        1
 10
1732.705576327979
 20
-9160.521922410843
1001
ACAD
1010
0.0
1020
0.0
1030
0.0
  0
HATCH
  5
2B
330
2
100
AcDbEntity
  8
0
 48
4.0
370
     5
100
AcDbHatch
 10
0.0
 20
0.0
 30
0.0000000000081514
210
0.0
220
-0.0000000000000009
230
1.0
  2
SOLID
 70
     1
 71
     0
 91
        1
 92
        7
 72
     0
 73
     1
 93
        4
 10
1756.348186340647
 20
-9154.373813221296
 10
1718.386856374081
 20
-9154.373813221296
 10
1718.386856374081
 20
-9159.373813221296
 10
1756.348186340647
 20
-9159.373813221296
 97
        0
 75
     0
 76
     1
 47
0.2555030422937901
 98
        1
 10
1733.152195377501
 20
-9156.847944565679
1001
ACAD
1010
0.0
1020
0.0
1030
0.0
  0
HATCH
  5
2C
330
2
100
AcDbEntity
  8
0
 48
4.0
370
     5
100
AcDbHatch
 10
0.0
 20
0.0
 30
0.0000000000081514
210
0.0
220
-0.0000000000000009
230
1.0
  2
SOLID
 70
     1
 71
     0
 91
        1
 92
        7
 72
     0
 73
     1
 93
        4
 10
1718.386856374081
 20
-9159.373813221296
 10
1713.386856374081
 20
-9159.373813221296
 10
1713.386856374081
 20
-9168.627471467679
 10
1718.386856374081
 20
-9168.627471467679
 97
        0
 75
     0
 76
     1
 47
0.2555030422937901
 98
        1
 10
1715.513812625671
 20
-9160.935999177276
1001
ACAD
1010
0.0
1020
0.0
1030
0.0
  0
HATCH
  5
2D
330
2
100
AcDbEntity
  8
0
 48
4.0
370
     5
100
AcDbHatch
 10
0.0
 20
0.0
 30
0.0000000000081514
210
0.0
220
-0.0000000000000009
230
1.0
  2
SOLID
 70
     1
 71
     0
 91
        1
 92
        7
 72
     0
 73
     1
 93
        4
 10
1718.386856374081
 20
-9159.373813221296
 10
1713.386856374081
 20
-9159.373813221296
 10
1713.386856374081
 20
-9168.627471467679
 10
1718.386856374081
 20
-9168.627471467679
 97
        0
 75
     0
 76
     1
 47
0.2555030422937901
 98
        1
 10
1716.025078728824
 20
-9160.425002984174
1001
ACAD
1010
0.0
1020
0.0
1030
0.0
  0
HATCH
  5
2E
330
2
100
AcDbEntity
  8
0
 48
4.0
370
     5
100
AcDbHatch
 10
0.0
 20
0.0
 30
0.0000000000081514
210
0.0
220
-0.0000000000000009
230
1.0
  2
SOLID
 70
     1
 71
     0
 91
        1
 92
        7
 72
     0
 73
     1
 93
        5
 10
1718.386856374081
 20
-9154.373813221296
 10
1717.348203423197
 20
-9154.373813221296
 10
1713.386856374081
 20
-9158.335160270409
 10
1713.386856374081
 20
-9159.373813221296
 10
1718.386856374081
 20
-9159.373813221296
 97
        0
 75
     0
 76
     1
 47
0.2555030422937901
 98
        1
 10
1717.558831221824
 20
-9157.869965307481
1001
ACAD
1010
0.0
1020
0.0
1030
0.0
  0
HATCH
  5
2F
330
2
100
AcDbEntity
  8
0
 48
4.0
370
     5
100
AcDbHatch
 10
0.0
 20
0.0
 30
0.0000000000081514
210
0.0
220
-0.0000000000000009
230
1.0
  2
SOLID
 70
     1
 71
     0
 91
        1
 92
        7
 72
     0
 73
     1
 93
        4
 10
1718.386856374081
 20
-9115.373830303841
 10
1717.348203423195
 20
-9115.373830303841
 10
1717.348203423195
 20
-9154.373813221296
 10
1718.386856374081
 20
-9154.373813221296
 97
        0
 75
     0
 76
     1
 47
0.0885640510249868
 98
        1
 10
1718.318101932593
 20
-9119.530194003528
1001
ACAD
1010
0.0
1020
0.0
1030
0.0
  0
LINE
  5
30
330
2
100
AcDbEntity
  8
0
  6
Continuous
 62
   210
370
     5
100
AcDbLine
 10
1713.38685637408
 20
-9261.624272174932
 30
-0.0000000000000746
 11
2034.386856732735
 21
-9261.624272174934
 31
-0.0000000000000746
  0
LINE
  5
31
330
2
100
AcDbEntity
  8
0
  6
Continuous
 62
   210
370
     5
100
AcDbLine
 10
2034.386856732735
 20
-9261.624272174934
 30
-0.0000000000000746
 11
2034.386856732735
 21
-9050.374272174932
 31
0.000000000000113
  0
LINE
  5
33
330
2
100
AcDbEntity
  8
0
  6
Continuous
 62
   210
370
     5
100
AcDbLine
 10
2739.386856732734
 20
-8225.414271623348
 30
0.0000000000008457
 11
2739.386856732736
 21
-8107.914271623355
 31
0.0000000000009501
  0
ARC
  5
34
330
2
100
AcDbEntity
  8
0
  6
Continuous
 62
   210
370
     5
100
AcDbCircle
 10
2439.386856732756
 20
-8107.914271623346
 30
0.0000000000009501
 40
299.9999999999807
100
AcDbArc
 50
0.0
 51
83.7807515571051
  0
ARC
  5
35
330
2
100
AcDbEntity
  8
0
  6
Continuous
 62
   210
370
     5
100
AcDbCircle
 10
-2439.386856732737
 20
-8107.91427162335
 30
-0.0000000000081514
 40
269.9999999999985
210
0.0
220
0.0000000000000009
230
-1.0
100
AcDbArc
 50
96.9134781798075
 51
180.0
  0
LINE
  5
36
330
2
100
AcDbEntity
  8
0
  6
Continuous
 62
   210
370
     5
100
AcDbLine
 10
2709.386856732736
 20
-8225.414271623348
 30
0.0000000000008457
 11
2709.386856732736
 21
-8107.914271623352
 31
0.0000000000009501
  0
ARC
  5
37
330
2
100
AcDbEntity
  8
0
  6
Continuous
 62
   210
370
     5
100
AcDbCircle
 10
2439.386856732736
 20
-8107.914271623355
 30
0.0000000000009501
 40
270.0000000000007
100
AcDbArc
 50
0.0
 51
83.08652182019251
  0
ARC
  5
38
330
2
100
AcDbEntity
  8
0
  6
Continuous
 62
   210
370
     5
100
AcDbCircle
 10
-2439.386856732737
 20
-8107.914271623352
 30
-0.0000000000081514
 40
239.9999999999987
210
0.0
220
0.0000000000000009
230
-1.0
100
AcDbArc
 50
97.78271438535588
 51
180.0
  0
LINE
  5
39
330
2
100
AcDbEntity
  8
0
  6
Continuous
 62
   210
370
     5
100
AcDbLine
 10
2679.386856732735
 20
-8225.414271623348
 30
0.0000000000008457
 11
2679.386856732735
 21
-8107.914271623355
 31
0.0000000000009501
  0
ARC
  5
3A
330
2
100
AcDbEntity
  8
0
  6
Continuous
 62
   210
370
     5
100
AcDbCircle
 10
2439.386856732733
 20
-8107.914271623355
 30
0.0000000000009501
 40
240.0000000000023
100
AcDbArc
 50
0.0
 51
82.21728561464413
  0
LINE
  5
3B
330
2
100
AcDbEntity
  8
0
  6
Continuous
 62
   210
370
     5
100
AcDbLine
 10
2471.886856732732
 20
-7900.378856749951
 30
0.0000000000011344
 11
2471.886856732732
 21
-7809.679883934743
 31
0.000000000001215
  0
ARC
  5
3C
330
2
100
AcDbEntity
  8
0
  6
Continuous
 62
   210
370
     5
100
AcDbCircle
 10
-2439.043486538447
 20
-8108.339994198265
 30
-0.0000000000081514
 40
210.5386464631035
210
0.0
220
0.0000000000000009
230
-1.0
100
AcDbArc
 50
98.97461610233593
 51
138.8655027245572
  0
ARC
  5
3D
330
2
100
AcDbEntity
  8
0
  6
Continuous
 62
   210
370
     5
100
AcDbCircle
 10
-2439.386856732741
 20
-8107.914271623352
 30
-0.0000000000081514
 40
209.9999999999956
210
0.0
220
0.0000000000000009
230
-1.0
100
AcDbArc
 50
138.8913571926466
 51
180.0
  0
LINE
  5
3E
330
2
100
AcDbEntity
  8
0
  6
Continuous
 62
   210
370
     5
100
AcDbLine
 10
1713.386856374081
 20
-9171.624272174941
 30
0.0000000000000053
 11
2034.386856732735
 21
-9171.624272174936
 31
0.0000000000000053
  0
LINE
  5
3F
330
2
100
AcDbEntity
  8
0
  6
Continuous
 62
   210
370
     5
100
AcDbLine
 10
2064.216856732731
 20
-8107.914271623355
 30
0.0000000000009501
 11
2064.216856732731
 21
-7839.679949241169
 31
0.0000000000011883
  0
LINE
  5
41
330
2
100
AcDbEntity
  8
0
  6
Continuous
 62
   210
370
     5
100
AcDbLine
 10
2644.386856732745
 20
-8462.917848440644
 30
0.0000000000006348
 11
2709.386856732744
 21
-8462.917848440644
 31
0.0000000000006348
  0
LINE
  5
42
330
2
100
AcDbEntity
  8
0
  6
Continuous
 62
   210
370
     5
100
AcDbLine
 10
2709.386856732744
 20
-8462.917848440644
 30
0.0000000000006348
 11
2709.386856732736
 21
-8255.414271623349
 31
0.0000000000008191
  0
LINE
  5
43
330
2
100
AcDbEntity
  8
0
  6
Continuous
 62
   210
370
     5
100
AcDbLine
 10
2709.386856732736
 20
-8255.414271623349
 30
0.0000000000008191
 11
2644.386856732748
 21
-8255.414271623349
 31
0.0000000000008191
  0
LINE
  5
44
330
2
100
AcDbEntity
  8
0
  6
Continuous
 62
   210
370
     5
100
AcDbLine
 10
2644.386856732748
 20
-8255.414271623349
 30
0.0000000000008191
 11
2644.386856732745
 21
-8225.414271623348
 31
0.0000000000008457
  0
LINE
  5
45
330
2
100
AcDbEntity
  8
0
  6
Continuous
 62
   210
370
     5
100
AcDbLine
 10
2644.386856732745
 20
-8225.414271623348
 30
0.0000000000008457
 11
2739.386856732734
 21
-8225.414271623348
 31
0.0000000000008457
  0
LINE
  5
46
330
2
100
AcDbEntity
  8
0
  6
Continuous
 62
   210
370
     5
100
AcDbLine
 10
2649.386856732739
 20
-8225.414271623348
 30
0.0000000000008457
 11
2649.386856732739
 21
-8107.914271623355
 31
0.0000000000009501
  0
ARC
  5
47
330
2
100
AcDbEntity
  8
0
  6
Continuous
 62
   210
370
     5
100
AcDbCircle
 10
2439.386856732737
 20
-8107.914271623355
 30
0.0000000000009501
 40
210.0000000000011
100
AcDbArc
 50
0.0
 51
41.10864280735337
  0
ARC
  5
48
330
2
100
AcDbEntity
  8
0
  6
Continuous
 62
   210
370
     5
100
AcDbCircle
 10
2439.043486538445
 20
-8108.339994198273
 30
0.0000000000009497
 40
210.5386464631095
100
AcDbArc
 50
41.1344972754428
 51
81.02538389766406
  0
LINE
  5
49
330
2
100
AcDbEntity
  8
0
  6
Continuous
 62
   210
370
     5
100
AcDbLine
 10
2441.886856732734
 20
-7900.378856749954
 30
0.0000000000011344
 11
2441.886856732734
 21
-7839.679979193279
 31
0.0000000000011883
  0
LINE
  5
4A
330
2
100
AcDbEntity
  8
0
  6
Continuous
 62
   210
370
     5
100
AcDbLine
 10
2441.886856732734
 20
-7839.679979193279
 30
0.0000000000011883
 11
2069.38685673273
 21
-7839.67994964053
 31
0.0000000000011883
  0
LINE
  5
4B
330
2
100
AcDbEntity
  8
0
  6
Continuous
 62
   210
370
     5
100
AcDbLine
 10
1648.386856374083
 20
-9559.834272174903
 30
-0.0000000000003395
 11
1648.386856374082
 21
-9719.914272174909
 31
-0.0000000000004816
  0
LINE
  5
4C
330
2
100
AcDbEntity
  8
0
  6
Continuous
 62
   210
370
     5
100
AcDbLine
 10
1648.386856374082
 20
-9719.914272174909
 30
-0.0000000000004816
 11
1105.386856374085
 21
-9719.914272174909
 31
-0.0000000000004816
  0
LINE
  5
4D
330
2
100
AcDbEntity
  8
0
  6
Continuous
 62
   210
370
     5
100
AcDbLine
 10
1105.386856374085
 20
-9719.914272174909
 30
-0.0000000000004816
 11
1105.386856374087
 21
-9559.834272174903
 31
-0.0000000000003395
  0
LINE
  5
4E
330
2
100
AcDbEntity
  8
0
  6
Continuous
 62
   210
370
     5
100
AcDbLine
 10
1105.386856374085
 20
-9559.834272174903
 30
-0.0000000000003395
 11
1648.386856374082
 21
-9559.834272174903
 31
-0.0000000000003395
  0
LINE
  5
50
330
2
100
AcDbEntity
  8
0
  6
Continuous
 62
   210
370
     5
100
AcDbLine
 10
2644.386856732745
 20
-8767.053070167843
 30
0.0000000000003647
 11
2644.386856732746
 21
-8462.917848440644
 31
0.0000000000006348
  0
LINE
  5
51
330
2
100
AcDbEntity
  8
0
  6
Continuous
 62
   210
370
     5
100
AcDbLine
 10
2644.386856732745
 20
-8767.053070167843
 30
0.0000000000003647
 11
2439.386856732714
 21
-8767.053070167843
 31
0.0000000000003647
  0
LINE
  5
52
330
2
100
AcDbEntity
  8
0
  6
Continuous
 62
     8
370
     5
390
53
100
AcDbLine
 10
1076.886856374085
 20
-8528.894271623352
 30
0.0000000000005762
 11
1076.886856374085
 21
-8528.584271623351
 31
0.0000000000005765
  0
LINE
  5
54
330
2
100
AcDbEntity
  8
0
  6
Continuous
 62
     8
370
     5
390
53
100
AcDbLine
 10
1132.385288309047
 20
-8528.89427162335
 30
0.0000000000005762
 11
1076.886856374085
 21
-8528.89427162335
 31
0.0000000000005762
  0
LINE
  5
55
330
2
100
AcDbEntity
  8
0
  6
Continuous
 62
     8
370
     5
390
53
100
AcDbLine
 10
2064.216856732731
 20
-7839.679949241169
 30
0.0000000000011883
 11
2441.88685673273
 21
-7839.679949241169
 31
0.0000000000011883
  0
LINE
  5
56
330
2
100
AcDbEntity
  8
0
  6
Continuous
 62
     8
370
     5
390
53
100
AcDbLine
 10
2471.88685673273
 20
-7809.679949241169
 30
0.000000000001215
 11
2039.386856732728
 21
-7809.679949241169
 31
0.000000000001215
  0
LINE
  5
57
330
2
100
AcDbEntity
  8
0
  6
Continuous
 62
     8
370
     5
390
53
100
AcDbLine
 10
2441.88685673273
 20
-7839.679949241169
 30
0.0000000000011883
 11
2441.886856732732
 21
-7900.378856749951
 31
0.0000000000011344
  0
LINE
  5
58
330
2
100
AcDbEntity
  8
0
  6
Continuous
 62
     8
370
     5
390
53
100
AcDbLine
 10
2441.886856732732
 20
-7900.378856749951
 30
0.0000000000011344
 11
2471.886856732732
 21
-7900.378856749951
 31
0.0000000000011344
  0
LINE
  5
59
330
2
100
AcDbEntity
  8
0
  6
Continuous
 62
     8
370
     5
390
53
100
AcDbLine
 10
2471.886856732732
 20
-7900.378856749951
 30
0.0000000000011344
 11
2471.88685673273
 21
-7809.679949241169
 31
0.000000000001215
  0
LINE
  5
5A
330
2
100
AcDbEntity
  8
0
  6
Continuous
 62
     8
370
     5
390
53
100
AcDbLine
 10
2039.386856732728
 20
-7809.679949241169
 30
0.000000000001215
 11
2039.386856732728
 21
-8069.606386064497
 31
0.0000000000009841
  0
LINE
  5
5B
330
2
100
AcDbEntity
  8
0
  6
Continuous
 62
     8
370
     5
390
53
100
AcDbLine
 10
2644.386856732743
 20
-8225.414271623348
 30
0.0000000000008457
 11
2644.386856732743
 21
-8255.414271623349
 31
0.0000000000008191
  0
LINE
  5
5C
330
2
100
AcDbEntity
  8
0
  6
Continuous
 62
     8
370
     5
390
53
100
AcDbLine
 10
2644.386856732743
 20
-8255.414271623349
 30
0.0000000000008191
 11
2709.386856732734
 21
-8255.414271623349
 31
0.0000000000008191
  0
LINE
  5
5D
330
2
100
AcDbEntity
  8
0
  6
Continuous
 62
     8
370
     5
390
53
100
AcDbLine
 10
2709.386856732734
 20
-8255.414271623349
 30
0.0000000000008191
 11
2709.386856732739
 21
-8462.917848440644
 31
0.0000000000006348
  0
LINE
  5
5E
330
2
100
AcDbEntity
  8
0
  6
Continuous
 62
     8
370
     5
390
53
100
AcDbLine
 10
2644.388743322203
 20
-8702.910695909258
 30
0.0000000000004216
 11
2644.388743322205
 21
-8767.05307016784
 31
0.0000000000003647
  0
LINE
  5
5F
330
2
100
AcDbEntity
  8
0
  6
Continuous
 62
     8
370
     5
390
53
100
AcDbLine
 10
2674.388743322206
 20
-8797.053070167839
 30
0.000000000000338
 11
2674.388743322203
 21
-8702.910695909258
 31
0.0000000000004216
  0
LINE
  5
60
330
2
100
AcDbEntity
  8
0
  6
Continuous
 62
     8
370
     5
390
53
100
AcDbLine
 10
2039.386856732736
 20
-9252.914272174937
 30
-0.0000000000000669
 11
2069.386856732736
 21
-9252.914272174937
 31
-0.0000000000000669
  0
LINE
  5
61
330
2
100
AcDbEntity
  8
0
  6
Continuous
 62
     8
370
     5
390
53
100
AcDbLine
 10
2069.386856732736
 20
-9252.914272174937
 30
-0.0000000000000669
 11
2069.386856732736
 21
-9050.374272174932
 31
0.000000000000113
  0
LINE
  5
62
330
2
100
AcDbEntity
  8
0
  6
Continuous
 62
     8
370
     5
390
53
100
AcDbLine
 10
2709.386856732739
 20
-8462.917848440644
 30
0.0000000000006348
 11
2644.386856732743
 21
-8462.917848440644
 31
0.0000000000006348
  0
LINE
  5
63
330
2
100
AcDbEntity
  8
0
  6
Continuous
 62
     8
370
     5
390
53
100
AcDbLine
 10
2644.386856732743
 20
-8462.917848440644
 30
0.0000000000006348
 11
2644.386856732743
 21
-8492.917848440642
 31
0.0000000000006082
  0
LINE
  5
64
330
2
100
AcDbEntity
  8
0
  6
Continuous
 62
     8
370
     5
390
53
100
AcDbLine
 10
2644.386856732743
 20
-8672.910695909257
 30
0.0000000000004483
 11
2644.386856732743
 21
-8702.910695909258
 31
0.0000000000004216
  0
LINE
  5
65
330
2
100
AcDbEntity
  8
0
  6
Continuous
 62
     8
370
     5
390
53
100
AcDbLine
 10
2644.386856732743
 20
-8702.910695909258
 30
0.0000000000004216
 11
2644.388743322203
 21
-8702.910695909258
 31
0.0000000000004216
  0
LINE
  5
66
330
2
100
AcDbEntity
  8
0
  6
Continuous
 62
     8
370
     5
390
53
100
AcDbLine
 10
2644.386856732743
 20
-8672.910695909257
 30
0.0000000000004483
 11
2734.386856732744
 21
-8672.910695909257
 31
0.0000000000004483
  0
LINE
  5
67
330
2
100
AcDbEntity
  8
0
  6
Continuous
 62
     8
370
     5
390
53
100
AcDbLine
 10
2674.388743322203
 20
-8702.910695909258
 30
0.0000000000004216
 11
2734.386856732744
 21
-8702.910695909258
 31
0.0000000000004216
  0
LINE
  5
68
330
2
100
AcDbEntity
  8
0
  6
Continuous
 62
     8
370
     5
390
53
100
AcDbLine
 10
2734.386856732744
 20
-8702.910695909258
 30
0.0000000000004216
 11
2734.386856732744
 21
-8672.910695909257
 31
0.0000000000004483
  0
LINE
  5
69
330
2
100
AcDbEntity
  8
0
  6
Continuous
 62
     8
370
     5
390
53
100
AcDbLine
 10
2434.346856732725
 20
-8797.053070167844
 30
0.000000000000338
 11
2674.388743322206
 21
-8797.053070167839
 31
0.000000000000338
  0
LINE
  5
6A
330
2
100
AcDbEntity
  8
0
  6
Continuous
 62
     8
370
     5
390
53
100
AcDbLine
 10
2644.388743322205
 20
-8767.05307016784
 30
0.0000000000003647
 11
2434.346856732727
 21
-8767.053070167843
 31
0.0000000000003647
  0
LINE
  5
6B
330
2
100
AcDbEntity
  8
0
  6
Continuous
 62
     8
370
     5
390
53
100
AcDbLine
 10
2784.386856732738
 20
-8462.917848440637
 30
0.0000000000006348
 11
2739.386856732739
 21
-8462.917848440641
 31
0.0000000000006348
  0
LINE
  5
6C
330
2
100
AcDbEntity
  8
0
370
     5
100
AcDbLine
 10
2064.386856732736
 20
-9110.490875530695
 30
0.0000000000000596
 11
2064.386856732736
 21
-9110.490875530695
 31
0.0000000000000596
  0
LINE
  5
6D
330
2
100
AcDbEntity
  8
0
370
     5
100
AcDbLine
 10
2064.386856732736
 20
-9140.679057321955
 30
0.0000000000000328
 11
2064.386856732736
 21
-9140.679057321955
 31
0.0000000000000328
  0
LINE
  5
6E
330
2
100
AcDbEntity
  8
0
370
     5
100
AcDbLine
 10
2064.386856732736
 20
-9183.865089555821
 30
-0.0000000000000055
 11
2064.386856732736
 21
-9183.865089555821
 31
-0.0000000000000055
  0
LINE
  5
6F
330
2
100
AcDbEntity
  8
0
370
     5
100
AcDbLine
 10
2734.386856732736
 20
-8225.414271623348
 30
0.0000000000008457
 11
2741.544528831181
 21
-8225.414271623348
 31
0.0000000000008457
  0
LINE
  5
70
330
2
100
AcDbEntity
  8
0
370
     5
100
AcDbLine
 10
2455.844069775116
 20
-8797.053070167844
 30
0.000000000000338
 11
2460.03182825741
 21
-8866.906491562927
 31
0.000000000000276
  0
LINE
  5
71
330
2
100
AcDbEntity
  8
0
370
     5
100
AcDbLine
 10
2488.758495859924
 20
-8797.053070167844
 30
0.000000000000338
 11
2493.873427371704
 21
-8825.492744821957
 31
0.0000000000003128
  0
LINE
  5
72
330
2
100
AcDbEntity
  8
0
370
     5
100
AcDbLine
 10
2521.672921944732
 20
-8797.053070167844
 30
0.000000000000338
 11
2541.231631875275
 21
-8862.302430296827
 31
0.0000000000002801
  0
LINE
  5
73
330
2
100
AcDbEntity
  8
0
370
     5
100
AcDbLine
 10
2554.58734802954
 20
-8797.053070167844
 30
0.000000000000338
 11
2567.444302596632
 21
-8827.69006228357
 31
0.0000000000003108
  0
LINE
  5
74
330
2
100
AcDbEntity
  8
0
370
     5
100
AcDbLine
 10
2587.501774114347
 20
-8797.053070167844
 30
0.000000000000338
 11
2623.939753720359
 21
-8864.586348809099
 31
0.000000000000278
  0
LINE
  5
75
330
2
100
AcDbEntity
  8
0
370
     5
100
AcDbLine
 10
2620.416200199154
 20
-8797.053070167839
 30
0.000000000000338
 11
2643.012671536605
 21
-8831.303371512618
 31
0.0000000000003076
  0
LINE
  5
76
330
2
100
AcDbEntity
  8
0
370
     5
100
AcDbLine
 10
2653.330626283964
 20
-8797.053070167844
 30
0.000000000000338
 11
2688.790042005156
 21
-8839.249000931646
 31
0.0000000000003005
  0
LINE
  5
77
330
2
100
AcDbEntity
  8
0
370
     5
100
AcDbLine
 10
2674.388743322205
 20
-8785.196761121277
 30
0.0000000000003486
 11
2692.12506785211
 21
-8798.292388763652
 31
0.0000000000003369
  0
LINE
  5
78
330
2
100
AcDbEntity
  8
0
370
     5
100
AcDbLine
 10
2674.388743322205
 20
-8752.282335036468
 30
0.0000000000003778
 11
2712.034115569848
 21
-8767.453270216796
 31
0.0000000000003643
  0
LINE
  5
79
330
2
100
AcDbEntity
  8
0
370
     5
100
AcDbLine
 10
2674.388743322205
 20
-8719.367908951658
 30
0.000000000000407
 11
2699.776213513366
 21
-8722.716190953406
 31
0.0000000000004041
  0
LINE
  5
7A
330
2
100
AcDbEntity
  8
0
370
     5
100
AcDbLine
 10
2069.459591049812
 20
-9244.226634358353
 30
-0.0000000000000591
 11
2076.460159721051
 21
-9249.783863795004
 31
-0.0000000000000641
  0
LINE
  5
7B
330
2
100
AcDbEntity
  8
0
370
     5
100
AcDbLine
 10
2069.449200433088
 20
-9217.610582617869
 30
-0.0000000000000355
 11
2108.345933124308
 21
-9242.043563235489
 31
-0.0000000000000572
  0
LINE
  5
7C
330
2
100
AcDbEntity
  8
0
370
     5
100
AcDbLine
 10
2069.438809816362
 20
-9190.994530877375
 30
-0.0000000000000119
 11
2092.529617323449
 21
-9202.284633644596
 31
-0.0000000000000219
  0
LINE
  5
7D
330
2
100
AcDbEntity
  8
0
370
     5
100
AcDbLine
 10
2069.428419199636
 20
-9164.378479136889
 30
0.0000000000000118
 11
2127.120431820995
 21
-9185.81323815148
 31
-0.0000000000000073
  0
LINE
  5
7E
330
2
100
AcDbEntity
  8
0
370
     5
100
AcDbLine
 10
2069.418028582912
 20
-9137.762427396399
 30
0.0000000000000354
 11
2103.833331599757
 21
-9147.355506397543
 31
0.0000000000000269
  0
LINE
  5
7F
330
2
100
AcDbEntity
  8
0
370
     5
100
AcDbLine
 10
2069.407637966186
 20
-9111.146375655911
 30
0.0000000000000591
 11
2138.383878543964
 21
-9124.925616975167
 31
0.0000000000000468
  0
LINE
  5
80
330
2
100
AcDbEntity
  8
0
370
     5
100
AcDbLine
 10
2069.39724734946
 20
-9084.530323915421
 30
0.0000000000000827
 11
2101.800646185284
 21
-9088.444867358075
 31
0.0000000000000792
  0
LINE
  5
81
330
2
100
AcDbEntity
  8
0
370
     5
100
AcDbLine
 10
2069.386856732736
 20
-9057.914272174931
 30
0.0000000000001063
 11
2101.208320660726
 21
-9059.246333455639
 31
0.0000000000001052
  0
LINE
  5
82
330
2
100
AcDbEntity
  8
0
370
     5
100
AcDbLine
 10
2443.175151131023
 20
-7809.679949241169
 30
0.000000000001215
 11
2449.011333029619
 21
-7798.077481209067
 31
0.0000000000012253
  0
LINE
  5
83
330
2
100
AcDbEntity
  8
0
370
     5
100
AcDbLine
 10
2397.518418939267
 20
-7809.679949241169
 30
0.000000000001215
 11
2412.745308435261
 21
-7756.266921315239
 31
0.0000000000012624
  0
LINE
  5
84
330
2
100
AcDbEntity
  8
0
370
     5
100
AcDbLine
 10
2351.861686747509
 20
-7809.679949241169
 30
0.000000000001215
 11
2354.585624666234
 21
-7788.93098827352
 31
0.0000000000012334
  0
LINE
  5
85
330
2
100
AcDbEntity
  8
0
370
     5
100
AcDbLine
 10
2306.204954555751
 20
-7809.679949241169
 30
0.000000000001215
 11
2305.681483933515
 21
-7755.151720969795
 31
0.0000000000012634
  0
LINE
  5
86
330
2
100
AcDbEntity
  8
0
370
     5
100
AcDbLine
 10
2260.548222363994
 20
-7809.679949241169
 30
0.000000000001215
 11
2257.354300588526
 21
-7788.444014688614
 31
0.0000000000012339
  0
LINE
  5
87
330
2
100
AcDbEntity
  8
0
370
     5
100
AcDbLine
 10
2214.891490172236
 20
-7809.679949241169
 30
0.000000000001215
 11
2199.166494966739
 21
-7755.66530301354
 31
0.000000000001263
  0
LINE
  5
88
330
2
100
AcDbEntity
  8
0
370
     5
100
AcDbLine
 10
2169.234757980479
 20
-7809.679949241169
 30
0.000000000001215
 11
2160.527360257257
 21
-7789.513141345229
 31
0.0000000000012329
  0
LINE
  5
89
330
2
100
AcDbEntity
  8
0
370
     5
100
AcDbLine
 10
2123.57802578872
 20
-7809.679949241169
 30
0.000000000001215
 11
2095.08451097999
 21
-7759.895195229545
 31
0.0000000000012592
  0
LINE
  5
8A
330
2
100
AcDbEntity
  8
0
370
     5
100
AcDbLine
 10
2077.921293596963
 20
-7809.679949241169
 30
0.000000000001215
 11
2062.553026517187
 21
-7791.229548583166
 31
0.0000000000012314
  0
LINE
  5
8B
330
2
100
AcDbEntity
  8
0
370
     5
100
AcDbLine
 10
2039.386856732728
 20
-7816.80224456869
 30
0.0000000000012087
 11
2025.758328123085
 21
-7808.321123249696
 31
0.0000000000012162
  0
LINE
  5
8C
330
2
100
AcDbEntity
  8
0
370
     5
100
AcDbLine
 10
2055.092927501084
 20
-7809.679949241169
 30
0.000000000001215
 11
2036.44629179595
 21
-7792.934393476092
 31
0.0000000000012299
  0
LINE
  5
8D
330
2
100
AcDbEntity
  8
0
370
     5
100
AcDbLine
 10
2039.386856732728
 20
-7862.458976760446
 30
0.0000000000011681
 11
1971.418153199791
 21
-7833.944148540469
 31
0.0000000000011934
  0
LINE
  5
8E
330
2
100
AcDbEntity
  8
0
370
     5
100
AcDbLine
 10
2039.386856732728
 20
-7908.115708952206
 30
0.0000000000011276
 11
2006.016053267504
 21
-7898.277199434493
 31
0.0000000000011363
  0
LINE
  5
8F
330
2
100
AcDbEntity
  8
0
370
     5
100
AcDbLine
 10
2039.386856732732
 20
-7953.772441143964
 30
0.000000000001087
 11
1954.054247453207
 21
-7936.011089561748
 31
0.0000000000011028
  0
LINE
  5
90
330
2
100
AcDbEntity
  8
0
370
     5
100
AcDbLine
 10
2039.38685673273
 20
-7999.429173335721
 30
0.0000000000010465
 11
2001.19322894093
 21
-7994.659340627184
 31
0.0000000000010507
  0
LINE
  5
91
330
2
100
AcDbEntity
  8
0
370
     5
100
AcDbLine
 10
2039.386856732728
 20
-8045.085905527479
 30
0.0000000000010059
 11
1951.596856732723
 21
-8041.088145402012
 31
0.0000000000010095
  0
LINE
  5
92
330
2
100
AcDbEntity
  8
0
370
     5
100
AcDbLine
 10
2176.846856732724
 20
-9057.914272174931
 30
0.0000000000001063
 11
2176.162727554391
 21
-9177.70391218765
 31
-0.0000000000000001
  0
ARC
  5
93
330
2
100
AcDbEntity
  8
0
370
     5
100
AcDbCircle
 10
2079.741280505159
 20
-9154.214574345173
 30
0.0000000000000208
 40
99.24134442532622
100
AcDbArc
 50
264.0111002334712
 51
346.3087935763259
  0
LINE
  5
94
330
2
100
AcDbEntity
  8
0
370
     5
100
AcDbLine
 10
2441.346856732725
 20
-8917.874272174932
 30
0.0000000000002307
 11
2693.106582269846
 21
-8917.874272174932
 31
0.0000000000002307
  0
ARC
  5
95
330
2
100
AcDbEntity
  8
0
370
     5
100
AcDbCircle
 10
2292.23124028792
 20
-8737.102312895176
 30
0.0000000000003913
 40
439.7494071297495
100
AcDbArc
 50
335.727335658873
 51
4.459391146541491
  0
ARC
  5
96
330
2
100
AcDbEntity
  8
0
370
     5
100
AcDbCircle
 10
2381.557026276749
 20
-7826.690255169079
 30
0.0000000000011999
 40
87.2391638315768
100
AcDbArc
 50
14.6407151089322
 51
94.94530387720741
  0
LINE
  5
97
330
2
100
AcDbEntity
  8
0
370
     5
100
AcDbLine
 10
2375.779256904998
 20
-7739.642629772866
 30
0.0000000000012772
 11
2086.359455238595
 21
-7739.680396101917
 31
0.0000000000012772
  0
ARC
  5
98
330
2
100
AcDbEntity
  8
0
370
     5
100
AcDbCircle
 10
2093.86223874118
 20
-7904.931154397242
 30
0.0000000000011304
 40
165.4209928560067
100
AcDbArc
 50
92.59958149734908
 51
173.2751301735128
  0
LINE
  5
99
330
2
100
AcDbEntity
  8
0
370
     5
100
AcDbLine
 10
1929.579356569111
 20
-7885.560054720045
 30
0.0000000000011476
 11
1929.579356569111
 21
-8062.874271623355
 31
0.0000000000009901
  0
LINE
  5
9A
330
2
100
AcDbEntity
  8
0
  6
Continuous
 62
    40
370
     5
100
AcDbLine
 10
2418.846856732726
 20
-8667.874272174932
 30
0.0000000000004528
 11
2410.846856732725
 21
-8667.874272174932
 31
0.0000000000004528
  0
LINE
  5
9B
330
2
100
AcDbEntity
  8
0
  6
Continuous
 62
    40
370
     5
100
AcDbLine
 10
2418.846856732728
 20
-8487.874272174932
 30
0.0000000000006126
 11
2410.846856732727
 21
-8487.874272174932
 31
0.0000000000006126
  0
LINE
  5
9C
330
2
100
AcDbEntity
  8
0
  6
Continuous
 62
    40
370
     5
100
AcDbLine
 10
1147.345288309047
 20
-8544.894384694918
 30
0.000000000000562
 11
1147.345288309047
 21
-8551.894384694918
 31
0.0000000000005558
  0
LINE
  5
9D
102
{ACAD_REACTORS
330
2AD
102
}
330
2
100
AcDbEntity
  8
0
  6
Continuous
 62
    40
370
     5
390
9E
100
AcDbLine
 10
1147.345288309047
 20
-8528.89438469492
 30
0.0000000000005762
 11
1247.345288309047
 21
-8528.89438469492
 31
0.0000000000005762
  0
LINE
  5
9F
330
2
100
AcDbEntity
  8
0
  6
PARTER$0$HIDDEN2
 62
    40
370
     5
100
AcDbLine
 10
2131.846856732729
 20
-8123.414271623353
 30
0.0000000000009363
 11
2131.846856732729
 21
-8131.414271623354
 31
0.0000000000009292
  0
LINE
  5
A1
330
2
100
AcDbEntity
  8
0
  6
PARTER$0$HIDDEN2
 62
    40
370
     5
100
AcDbLine
 10
2311.846856732729
 20
-8123.414271623353
 30
0.0000000000009363
 11
2311.846856732729
 21
-8131.414271623354
 31
0.0000000000009292
  0
LINE
  5
A2
330
2
100
AcDbEntity
  8
0
  6
Continuous
 62
    40
370
     5
100
AcDbLine
 10
1593.886856374082
 20
-9534.334272174907
 30
-0.0000000000003168
 11
1601.886856374082
 21
-9534.334272174907
 31
-0.0000000000003168
  0
LINE
  5
A3
330
2
100
AcDbEntity
  8
0
  6
Continuous
 62
    40
370
     5
100
AcDbLine
 10
1601.886856374082
 20
-9534.334272174907
 30
-0.0000000000003168
 11
1601.886856374082
 21
-9546.334272174908
 31
-0.0000000000003275
  0
LINE
  5
A4
330
2
100
AcDbEntity
  8
0
  6
Continuous
 62
    40
370
     5
100
AcDbLine
 10
1601.886856374082
 20
-9546.334272174908
 30
-0.0000000000003275
 11
1593.886856374082
 21
-9546.334272174908
 31
-0.0000000000003275
  0
LINE
  5
A5
330
2
100
AcDbEntity
  8
0
  6
Continuous
 62
    40
370
     5
100
AcDbLine
 10
1593.886856374082
 20
-9546.334272174908
 30
-0.0000000000003275
 11
1593.886856374082
 21
-9534.334272174907
 31
-0.0000000000003168
  0
LINE
  5
A6
330
2
100
AcDbEntity
  8
0
  6
Continuous
 62
    40
370
     5
100
AcDbLine
 10
1159.886856374082
 20
-9534.334272174907
 30
-0.0000000000003168
 11
1151.886856374082
 21
-9534.334272174907
 31
-0.0000000000003168
  0
LINE
  5
A7
330
2
100
AcDbEntity
  8
0
  6
Continuous
 62
    40
370
     5
100
AcDbLine
 10
1151.886856374082
 20
-9534.334272174907
 30
-0.0000000000003168
 11
1151.886856374082
 21
-9546.334272174908
 31
-0.0000000000003275
  0
LINE
  5
A8
330
2
100
AcDbEntity
  8
0
  6
Continuous
 62
    40
370
     5
100
AcDbLine
 10
1151.886856374082
 20
-9546.334272174908
 30
-0.0000000000003275
 11
1159.886856374082
 21
-9546.334272174908
 31
-0.0000000000003275
  0
LINE
  5
A9
330
2
100
AcDbEntity
  8
0
  6
Continuous
 62
    40
370
     5
100
AcDbLine
 10
1159.886856374082
 20
-9546.334272174908
 30
-0.0000000000003275
 11
1159.886856374082
 21
-9534.334272174907
 31
-0.0000000000003168
  0
LINE
  5
AA
330
2
100
AcDbEntity
  8
0
  6
Continuous
 62
    40
370
     5
100
AcDbLine
 10
1914.346856732718
 20
-9034.374272174934
 30
0.0000000000001272
 11
1914.346856732718
 21
-9027.374272174931
 31
0.0000000000001335
  0
LINE
  5
AB
330
2
100
AcDbEntity
  8
0
  6
Continuous
 62
    40
370
     5
100
AcDbLine
 10
1814.346856732718
 20
-9050.374272174932
 30
0.000000000000113
 11
1914.346856732718
 21
-9050.374272174932
 31
0.000000000000113
  0
LINE
  5
AC
330
2
100
AcDbEntity
  8
0
  6
Continuous
 62
    40
370
     5
100
AcDbLine
 10
1814.346856732718
 20
-9034.374272174934
 30
0.0000000000001272
 11
1814.346856732718
 21
-9027.374272174931
 31
0.0000000000001335
  0
3DFACE
  5
AD
330
2
100
AcDbEntity
  8
0
  6
Continuous
 62
     7
370
     5
100
AcDbFace
 10
2011.345510042242
 20
-9115.373830303841
 30
0.0000000000000553
 11
2011.345510042242
 21
-9154.373813221296
 31
0.0000000000000207
 12
2025.735572792241
 22
-9168.763875971292
 32
0.0000000000000079
 13
2025.735572792241
 23
-9115.373830303841
 33
0.0000000000000553
  0
3DFACE
  5
AE
330
2
100
AcDbEntity
  8
0
  6
Continuous
 62
     7
370
     5
100
AcDbFace
 10
1972.34552712479
 20
-9115.373830303841
 30
0.0000000000000553
 11
2011.345510042242
 21
-9115.373830303841
 31
0.0000000000000553
 12
2025.735572792241
 22
-9115.373830303841
 32
0.0000000000000553
 13
1972.34552712479
 23
-9115.373830303841
 33
0.0000000000000553
  0
3DFACE
  5
AF
330
2
100
AcDbEntity
  8
0
  6
Continuous
 62
     7
370
     5
100
AcDbFace
 10
1972.34552712479
 20
-9154.373813221296
 30
0.0000000000000207
 11
1972.34552712479
 21
-9115.373830303841
 31
0.0000000000000553
 12
1972.34552712479
 22
-9115.373830303841
 32
0.0000000000000553
 13
1972.34552712479
 23
-9168.763875971292
 33
0.0000000000000079
  0
HATCH
  5
B0
330
2
100
AcDbEntity
  8
0
 48
4.0
370
     5
100
AcDbHatch
 10
0.0
 20
0.0
 30
0.0000000000081514
210
0.0
220
-0.0000000000000009
230
1.0
  2
SOLID
 70
     1
 71
     0
 91
        1
 92
        7
 72
     0
 73
     1
 93
        4
 10
2016.345510042242
 20
-9159.373813221296
 10
1972.34552712479
 20
-9159.373813221296
 10
1972.34552712479
 20
-9168.627471467679
 10
2025.599168288629
 20
-9168.627471467679
 97
        0
 75
     0
 76
     1
 47
0.2856015914270995
 98
        1
 10
1987.952303345511
 20
-9159.864979965822
1001
ACAD
1010
0.0
1020
0.0
1030
0.0
  0
HATCH
  5
B1
330
2
100
AcDbEntity
  8
0
 48
4.0
370
     5
100
AcDbHatch
 10
0.0
 20
0.0
 30
0.0000000000081514
210
0.0
220
-0.0000000000000009
230
1.0
  2
SOLID
 70
     1
 71
     0
 91
        1
 92
        7
 72
     0
 73
     1
 93
        4
 10
2011.345510042242
 20
-9154.373813221296
 10
1972.34552712479
 20
-9154.373813221296
 10
1972.34552712479
 20
-9159.373813221296
 10
2016.345510042242
 20
-9159.373813221296
 97
        0
 75
     0
 76
     1
 47
0.2856015914270995
 98
        1
 10
1994.238645151767
 20
-9157.58017111773
1001
ACAD
1010
0.0
1020
0.0
1030
0.0
  0
3DFACE
  5
B2
330
2
100
AcDbEntity
  8
0
  6
Continuous
 62
     7
370
     5
100
AcDbFace
 10
2011.345510042242
 20
-9154.373813221296
 30
0.0000000000000207
 11
1972.34552712479
 21
-9154.373813221296
 31
0.0000000000000207
 12
1972.34552712479
 22
-9168.763875971292
 32
0.0000000000000079
 13
2025.735572792241
 23
-9168.763875971292
 33
0.0000000000000079
  0
3DFACE
  5
B3
330
2
100
AcDbEntity
  8
0
  6
Continuous
 62
     7
370
     5
100
AcDbFace
 10
2025.735572792241
 20
-9115.373830303841
 30
0.0000000000000553
 11
2025.735572792241
 21
-9168.763875971292
 31
0.0000000000000079
 12
1972.34552712479
 22
-9168.763875971292
 32
0.0000000000000079
 13
1972.34552712479
 23
-9115.373830303841
 33
0.0000000000000553
  0
3DFACE
  5
B4
330
2
100
AcDbEntity
  8
0
  6
Continuous
 62
     7
370
     5
100
AcDbFace
 10
2011.345510042242
 20
-9115.373830303841
 30
0.0000000000000553
 11
1972.34552712479
 21
-9115.373830303841
 31
0.0000000000000553
 12
1972.34552712479
 22
-9154.373813221296
 32
0.0000000000000207
 13
2011.345510042242
 23
-9154.373813221296
 33
0.0000000000000207
  0
3DFACE
  5
B5
330
2
100
AcDbEntity
  8
0
  6
Continuous
 62
   210
370
     5
100
AcDbFace
 10
2025.735572792241
 20
-9168.627471467679
 30
0.000000000000008
 11
2011.345510042242
 21
-9154.373813221296
 31
0.0000000000000207
 12
1972.34552712479
 22
-9154.373813221296
 32
0.0000000000000207
 13
1972.34552712479
 23
-9168.627471467679
 33
0.000000000000008
  0
HATCH
  5
B6
330
2
100
AcDbEntity
  8
0
 48
4.0
370
     5
100
AcDbHatch
 10
0.0
 20
0.0
 30
0.0000000000081514
210
0.0
220
-0.0000000000000009
230
1.0
  2
SOLID
 70
     1
 71
     0
 91
        1
 92
        7
 72
     0
 73
     1
 93
        4
 10
2011.345510042242
 20
-9115.373830303841
 10
1972.34552712479
 20
-9115.373830303841
 10
1972.34552712479
 20
-9154.373813221296
 10
2011.345510042242
 20
-9154.373813221296
 97
        0
 75
     0
 76
     1
 47
0.2856015914270995
 98
        1
 10
1991.952723502436
 20
-9147.012919561957
1001
ACAD
1010
0.0
1020
0.0
1030
0.0
  0
3DFACE
  5
B7
330
2
100
AcDbEntity
  8
0
  6
Continuous
 62
   210
370
     5
100
AcDbFace
 10
2011.345510042242
 20
-9154.373813221296
 30
0.0000000000000207
 11
2011.345510042242
 21
-9115.373830303841
 31
0.0000000000000553
 12
1972.34552712479
 22
-9115.373830303841
 32
0.0000000000000553
 13
1972.34552712479
 23
-9154.373813221296
 33
0.0000000000000207
  0
3DFACE
  5
B8
330
2
100
AcDbEntity
  8
0
  6
Continuous
 62
   210
370
     5
100
AcDbFace
 10
2011.345510042242
 20
-9115.373830303841
 30
0.0000000000000553
 11
2025.735572792241
 21
-9115.373830303841
 31
0.0000000000000553
 12
1972.34552712479
 22
-9115.373830303841
 32
0.0000000000000553
 13
1972.34552712479
 23
-9115.373830303841
 33
0.0000000000000553
  0
3DFACE
  5
B9
330
2
100
AcDbEntity
  8
0
  6
Continuous
 62
   210
370
     5
100
AcDbFace
 10
2025.735572792241
 20
-9115.373830303841
 30
0.0000000000000553
 11
2025.735572792241
 21
-9168.627471467679
 31
0.000000000000008
 12
1972.34552712479
 22
-9168.627471467679
 32
0.000000000000008
 13
1972.34552712479
 23
-9115.373830303841
 33
0.0000000000000553
  0
HATCH
  5
BA
330
2
100
AcDbEntity
  8
0
 48
4.0
370
     5
100
AcDbHatch
 10
0.0
 20
0.0
 30
0.0000000000081514
210
0.0
220
-0.0000000000000009
230
1.0
  2
SOLID
 70
     1
 71
     0
 91
        1
 92
        7
 72
     0
 73
     1
 93
        4
 10
2016.345510042244
 20
-9115.373830303841
 10
2011.345510042242
 20
-9115.373830303841
 10
2011.345510042242
 20
-9154.373813221296
 10
2016.345510042242
 20
-9159.326417839499
 97
        0
 75
     0
 76
     1
 47
0.2856015914270995
 98
        1
 10
2015.097834832515
 20
-9145.870500960112
1001
ACAD
1010
0.0
1020
0.0
1030
0.0
  0
HATCH
  5
BB
330
2
100
AcDbEntity
  8
0
 48
4.0
370
     5
100
AcDbHatch
 10
0.0
 20
0.0
 30
0.0000000000081514
210
0.0
220
-0.0000000000000009
230
1.0
  2
SOLID
 70
     1
 71
     0
 91
        1
 92
        7
 72
     0
 73
     1
 93
        4
 10
2025.735572792241
 20
-9115.373830303841
 10
2016.345510042244
 20
-9115.373830303841
 10
2016.345510042242
 20
-9159.326417839499
 10
2025.735572792241
 20
-9168.627471467679
 97
        0
 75
     0
 76
     1
 47
0.2856015914270995
 98
        1
 10
2020.241192905873
 20
-9147.298517123516
1001
ACAD
1010
0.0
1020
0.0
1030
0.0
  0
3DFACE
  5
BC
330
2
100
AcDbEntity
  8
0
  6
Continuous
 62
   210
370
     5
100
AcDbFace
 10
2011.345510042242
 20
-9115.373830303841
 30
0.0000000000000553
 11
2011.345510042242
 21
-9154.373813221296
 31
0.0000000000000207
 12
2025.735572792241
 22
-9168.627471467679
 32
0.000000000000008
 13
2025.735572792241
 23
-9115.373830303841
 33
0.0000000000000553
  0
3DFACE
  5
BD
330
2
100
AcDbEntity
  8
0
  6
Continuous
 62
   210
370
     5
100
AcDbFace
 10
1972.34552712479
 20
-9115.373830303841
 30
0.0000000000000553
 11
1972.34552712479
 21
-9168.627471467679
 31
0.000000000000008
 12
1972.34552712479
 22
-9154.373813221296
 32
0.0000000000000207
 13
1972.34552712479
 23
-9115.373830303841
 33
0.0000000000000553
  0
3DFACE
  5
BE
330
2
100
AcDbEntity
  8
0
  6
Continuous
 62
     7
370
     5
100
AcDbFace
 10
1717.348203423197
 20
-9115.373830303841
 30
0.0000000000000553
 11
1702.958140673198
 21
-9115.373830303841
 31
0.0000000000000553
 12
1702.958140673198
 22
-9168.763875971292
 32
0.0000000000000079
 13
1717.348203423197
 23
-9154.373813221296
 33
0.0000000000000207
  0
3DFACE
  5
BF
330
2
100
AcDbEntity
  8
0
  6
Continuous
 62
     7
370
     5
100
AcDbFace
 10
1756.348186340647
 20
-9115.373830303841
 30
0.0000000000000553
 11
1756.348186340647
 21
-9115.373830303841
 31
0.0000000000000553
 12
1702.958140673198
 22
-9115.373830303841
 32
0.0000000000000553
 13
1717.348203423197
 23
-9115.373830303841
 33
0.0000000000000553
  0
3DFACE
  5
C0
330
2
100
AcDbEntity
  8
0
  6
Continuous
 62
     7
370
     5
100
AcDbFace
 10
1756.348186340647
 20
-9154.373813221296
 30
0.0000000000000207
 11
1756.348186340647
 21
-9168.763875971292
 31
0.0000000000000079
 12
1756.348186340647
 22
-9115.373830303841
 32
0.0000000000000553
 13
1756.348186340647
 23
-9115.373830303841
 33
0.0000000000000553
  0
HATCH
  5
C1
330
2
100
AcDbEntity
  8
0
 48
4.0
370
     5
100
AcDbHatch
 10
0.0
 20
0.0
 30
0.0000000000081514
210
0.0
220
-0.0000000000000009
230
1.0
  2
SOLID
 70
     1
 71
     0
 91
        1
 92
        7
 72
     0
 73
     1
 93
        4
 10
1713.386856374081
 20
-9159.373813221296
 10
1712.348203423195
 20
-9159.373813221296
 10
1703.094545176809
 20
-9168.627471467679
 10
1713.386856374081
 20
-9168.627471467679
 97
        0
 75
     0
 76
     1
 47
0.2555030422937901
 98
        1
 10
1709.63432116407
 20
-9164.257545321419
1001
ACAD
1010
0.0
1020
0.0
1030
0.0
  0
HATCH
  5
C2
330
2
100
AcDbEntity
  8
0
 48
4.0
370
     5
100
AcDbHatch
 10
0.0
 20
0.0
 30
0.0
210
0.0
220
0.0
230
1.0
  2
SOLID
 70
     1
 71
     0
 91
        1
 92
        7
 72
     0
 73
     1
 93
        3
 10
1713.386856374081
 20
-9158.335160270414
 10
1712.348203423196
 20
-9159.373813221296
 10
1713.386856374081
 20
-9159.373813221296
 97
        0
 75
     0
 76
     1
 47
0.030293611473338
 98
        1
 10
1712.879119035205
 20
-9159.010457760988
1001
ACAD
1010
0.0
1020
0.0
1030
0.0
  0
3DFACE
  5
C3
330
2
100
AcDbEntity
  8
0
  6
Continuous
 62
     7
370
     5
100
AcDbFace
 10
1717.348203423197
 20
-9154.373813221296
 30
0.0000000000000207
 11
1702.958140673198
 21
-9168.763875971292
 31
0.0000000000000079
 12
1756.348186340647
 22
-9168.763875971292
 32
0.0000000000000079
 13
1756.348186340647
 23
-9154.373813221296
 33
0.0000000000000207
  0
3DFACE
  5
C4
330
2
100
AcDbEntity
  8
0
  6
Continuous
 62
     7
370
     5
100
AcDbFace
 10
1702.958140673198
 20
-9115.373830303841
 30
0.0000000000000553
 11
1756.348186340647
 21
-9115.373830303841
 31
0.0000000000000553
 12
1756.348186340647
 22
-9168.763875971292
 32
0.0000000000000079
 13
1702.958140673198
 23
-9168.763875971292
 33
0.0000000000000079
  0
3DFACE
  5
C5
330
2
100
AcDbEntity
  8
0
  6
Continuous
 62
     7
370
     5
100
AcDbFace
 10
1717.348203423197
 20
-9115.373830303841
 30
0.0000000000000553
 11
1717.348203423197
 21
-9154.373813221296
 31
0.0000000000000207
 12
1756.348186340647
 22
-9154.373813221296
 32
0.0000000000000207
 13
1756.348186340647
 23
-9115.373830303841
 33
0.0000000000000553
  0
3DFACE
  5
C6
330
2
100
AcDbEntity
  8
0
  6
Continuous
 62
   210
370
     5
100
AcDbFace
 10
1756.348186340647
 20
-9154.373813221296
 30
0.0000000000000207
 11
1717.348203423195
 21
-9154.373813221296
 31
0.0000000000000207
 12
1702.958140673198
 22
-9168.627471467679
 32
0.000000000000008
 13
1756.348186340647
 23
-9168.627471467679
 33
0.000000000000008
  0
3DFACE
  5
C7
330
2
100
AcDbEntity
  8
0
  6
Continuous
 62
   210
370
     5
100
AcDbFace
 10
1756.348186340647
 20
-9115.373830303841
 30
0.0000000000000553
 11
1717.348203423195
 21
-9115.373830303841
 31
0.0000000000000553
 12
1717.348203423195
 22
-9154.373813221296
 32
0.0000000000000207
 13
1756.348186340647
 23
-9154.373813221296
 33
0.0000000000000207
  0
3DFACE
  5
C8
330
2
100
AcDbEntity
  8
0
  6
Continuous
 62
   210
370
     5
100
AcDbFace
 10
1756.348186340647
 20
-9115.373830303841
 30
0.0000000000000553
 11
1702.958140673198
 21
-9115.373830303841
 31
0.0000000000000553
 12
1717.348203423195
 22
-9115.373830303841
 32
0.0000000000000553
 13
1756.348186340647
 23
-9115.373830303841
 33
0.0000000000000553
  0
3DFACE
  5
C9
330
2
100
AcDbEntity
  8
0
  6
Continuous
 62
   210
370
     5
100
AcDbFace
 10
1756.348186340647
 20
-9168.627471467679
 30
0.000000000000008
 11
1702.958140673198
 21
-9168.627471467679
 31
0.000000000000008
 12
1702.958140673198
 22
-9115.373830303841
 32
0.0000000000000553
 13
1756.348186340647
 23
-9115.373830303841
 33
0.0000000000000553
  0
HATCH
  5
CA
330
2
100
AcDbEntity
  8
0
 48
4.0
370
     5
100
AcDbHatch
 10
0.0
 20
0.0
 30
0.0000000000081514
210
0.0
220
-0.0000000000000009
230
1.0
  2
SOLID
 70
     1
 71
     0
 91
        1
 92
        7
 72
     0
 73
     1
 93
        4
 10
1712.348203423195
 20
-9115.373830303841
 10
1702.958140673198
 20
-9115.373830303841
 10
1702.958140673198
 20
-9168.627471467679
 10
1712.348203423196
 20
-9159.326417839499
 97
        0
 75
     0
 76
     1
 47
0.7371147783472081
 98
        1
 10
1708.40501918237
 20
-9143.947764715631
1001
ACAD
1010
0.0
1020
0.0
1030
0.0
  0
HATCH
  5
CB
330
2
100
AcDbEntity
  8
0
 48
4.0
370
     5
100
AcDbHatch
 10
0.0
 20
0.0
 30
0.0000000000081514
210
0.0
220
-0.0000000000000009
230
1.0
  2
SOLID
 70
     1
 71
     0
 91
        1
 92
        7
 72
     0
 73
     1
 93
        4
 10
1717.348203423195
 20
-9115.373830303841
 10
1713.386856374081
 20
-9115.373830303841
 10
1713.386856374081
 20
-9158.297610359246
 10
1717.348203423195
 20
-9154.373813221296
 97
        0
 75
     0
 76
     1
 47
0.2555030422937901
 98
        1
 10
1715.513812625671
 20
-9150.460364551742
1001
ACAD
1010
0.0
1020
0.0
1030
0.0
  0
HATCH
  5
CC
330
2
100
AcDbEntity
  8
0
 48
4.0
370
     5
100
AcDbHatch
 10
0.0
 20
0.0
 30
0.0000000000081514
210
0.0
220
-0.0000000000000009
230
1.0
  2
SOLID
 70
     1
 71
     0
 91
        1
 92
        7
 72
     0
 73
     1
 93
        4
 10
1713.386856374081
 20
-9115.373830303841
 10
1712.348203423195
 20
-9115.373830303841
 10
1712.348203423196
 20
-9159.326417839499
 10
1713.386856374081
 20
-9158.297610359246
 97
        0
 75
     0
 76
     1
 47
0.0885640510249868
 98
        1
 10
1712.913040124033
 20
-9124.31264880228
1001
ACAD
1010
0.0
1020
0.0
1030
0.0
  0
HATCH
  5
CD
330
2
100
AcDbEntity
  8
0
 48
4.0
370
     5
100
AcDbHatch
 10
0.0
 20
0.0
 30
0.0000000000081514
210
0.0
220
-0.0000000000000009
230
1.0
  2
SOLID
 70
     1
 71
     0
 91
        1
 92
        7
 72
     0
 73
     1
 93
        4
 10
1713.386856374081
 20
-9110.37383030384
 10
1712.348203423195
 20
-9110.37383030384
 10
1712.348203423195
 20
-9115.373830303841
 10
1713.386856374081
 20
-9115.373830303841
 97
        0
 75
     0
 76
     1
 47
0.0885640510249868
 98
        1
 10
1712.469994759973
 20
-9112.710758264547
1001
ACAD
1010
0.0
1020
0.0
1030
0.0
  0
3DFACE
  5
CE
330
2
100
AcDbEntity
  8
0
  6
Continuous
 62
   210
370
     5
100
AcDbFace
 10
1702.958140673198
 20
-9168.627471467679
 30
0.000000000000008
 11
1717.348203423195
 21
-9154.373813221296
 31
0.0000000000000207
 12
1717.348203423195
 22
-9115.373830303841
 32
0.0000000000000553
 13
1702.958140673198
 23
-9115.373830303841
 33
0.0000000000000553
  0
3DFACE
  5
CF
330
2
100
AcDbEntity
  8
0
  6
Continuous
 62
   210
370
     5
100
AcDbFace
 10
1756.348186340647
 20
-9154.373813221296
 30
0.0000000000000207
 11
1756.348186340647
 21
-9168.627471467679
 31
0.000000000000008
 12
1756.348186340647
 22
-9115.373830303841
 32
0.0000000000000553
 13
1756.348186340647
 23
-9115.373830303841
 33
0.0000000000000553
  0
LINE
  5
D0
330
2
100
AcDbEntity
  8
0
  6
Continuous
 62
   210
370
     5
100
AcDbLine
 10
1712.348203423196
 20
-9159.373813221296
 30
0.0000000000000162
 11
1712.348203423195
 21
-9110.37383030384
 31
0.0000000000000597
  0
LINE
  5
D1
330
2
100
AcDbEntity
  8
0
  6
Continuous
 62
     7
370
     5
100
AcDbLine
 10
1354.216630427001
 20
-8167.914271623356
 30
0.0000000000009173
 11
1724.216856732741
 21
-8167.914271623358
 31
0.0000000000009501
  0
LINE
  5
D2
330
2
100
AcDbEntity
  8
0
  6
Continuous
 62
     7
370
     5
100
AcDbLine
 10
1596.71685673274
 20
-8107.914271623355
 30
0.0000000000009501
 11
1294.216856581677
 21
-8107.914271623355
 31
0.0000000000009501
  0
LINE
  5
D3
330
2
100
AcDbEntity
  8
0
  6
Continuous
 62
     7
370
     5
100
AcDbLine
 10
1664.216856732741
 20
-8107.914271623355
 30
0.0000000000009501
 11
1596.71685673274
 21
-8107.914271623355
 31
0.0000000000009501
  0
LINE
  5
D4
330
2
100
AcDbEntity
  8
0
  6
Continuous
 62
     7
370
     5
100
AcDbLine
 10
1664.216856732741
 20
-8067.914271623347
 30
0.0000000000009856
 11
1664.216856732741
 21
-8107.914271623355
 31
0.0000000000009501
  0
LINE
  5
D5
330
2
100
AcDbEntity
  8
0
  6
Continuous
 62
     7
370
     5
100
AcDbLine
 10
1724.216856732741
 20
-8127.914271623351
 30
0.0000000000009501
 11
2009.21685673273
 21
-8127.914271623358
 31
0.0000000000009491
  0
LINE
  5
D6
330
2
100
AcDbEntity
  8
0
  6
Continuous
 62
     7
370
     5
100
AcDbLine
 10
1999.246856732721
 20
-8067.91427162336
 30
0.0000000000009856
 11
1664.216856732741
 21
-8067.914271623347
 31
0.0000000000009856
  0
LINE
  5
D7
330
2
100
AcDbEntity
  8
0
  6
Continuous
 62
     7
370
     5
100
AcDbLine
 10
2064.216856732727
 20
-8067.914271623363
 30
0.0000000000009856
 11
1999.246856732721
 21
-8067.91427162336
 31
0.0000000000009856
  0
LINE
  5
D8
330
2
100
AcDbEntity
  8
0
  6
Continuous
 62
     7
370
     5
100
AcDbLine
 10
2064.216856732728
 20
-8107.914271623352
 30
0.0000000000009501
 11
2064.216856732727
 21
-8067.914271623363
 31
0.0000000000009856
  0
LINE
  5
D9
330
2
100
AcDbEntity
  8
0
  6
Continuous
 62
     7
370
     5
100
AcDbLine
 10
1354.215054252685
 20
-8586.080918174392
 30
0.0000000000005254
 11
1354.215437252849
 21
-8484.469127669342
 31
0.0000000000006157
  0
LINE
  5
DA
330
2
100
AcDbEntity
  8
0
  6
Continuous
 62
     7
370
     5
100
AcDbLine
 10
1354.215437252849
 20
-8484.469127669342
 30
0.0000000000006157
 11
1354.216630427001
 21
-8167.914271623356
 31
0.0000000000008968
  0
LINE
  5
DB
330
2
100
AcDbEntity
  8
0
  6
Continuous
 62
     7
370
     5
100
AcDbLine
 10
1294.216856581677
 20
-8107.914271623355
 30
0.0000000000009501
 11
1294.215269802706
 21
-8528.89438469492
 31
0.0000000000005762
  0
LINE
  5
DC
330
2
100
AcDbEntity
  8
0
  6
Continuous
 62
     7
370
     5
100
AcDbLine
 10
1100.346856374082
 20
-8586.080918174392
 30
0.0000000000005416
 11
1147.345288309045
 21
-8586.080918174396
 31
0.0000000000005416
  0
LINE
  5
DD
102
{ACAD_REACTORS
330
2AD
102
}
330
2
100
AcDbEntity
  8
0
  6
Continuous
 62
     7
370
     5
100
AcDbLine
 10
1147.345288309045
 20
-8586.080918174392
 30
0.0000000000005416
 11
1147.345288309047
 21
-8528.89438469492
 31
0.0000000000005762
  0
LINE
  5
DE
330
2
100
AcDbEntity
  8
0
  6
Continuous
 62
     7
370
     5
100
AcDbLine
 10
1147.345288309047
 20
-8528.89438469492
 30
0.0000000000005762
 11
1040.346856374082
 21
-8528.894384694917
 31
0.0000000000005762
  0
LINE
  5
DF
330
2
100
AcDbEntity
  8
0
  6
Continuous
 62
     7
370
     5
100
AcDbLine
 10
1247.345288309045
 20
-8586.080918174392
 30
0.0000000000005425
 11
1354.215054252685
 21
-8586.080918174392
 31
0.0000000000005333
  0
LINE
  5
E0
330
2
100
AcDbEntity
  8
0
  6
Continuous
 62
     7
370
     5
100
AcDbLine
 10
1294.215269802706
 20
-8528.89438469492
 30
0.0000000000005762
 11
1247.345288309047
 21
-8528.89438469492
 31
0.0000000000005762
  0
LINE
  5
E1
330
2
100
AcDbEntity
  8
0
  6
Continuous
 62
     7
370
     5
100
AcDbLine
 10
1100.346856374081
 20
-9499.834272174906
 30
-0.0000000000002862
 11
1100.346856374082
 21
-9271.444272174903
 31
-0.0000000000000833
  0
LINE
  5
E2
330
2
100
AcDbEntity
  8
0
  6
Continuous
 62
     7
370
     5
100
AcDbLine
 10
1040.346856374082
 20
-9271.444272174903
 30
-0.0000000000000833
 11
1040.346856374082
 21
-9559.834272174903
 31
-0.0000000000003395
  0
LINE
  5
E3
330
2
100
AcDbEntity
  8
0
  6
Continuous
 62
     7
370
     5
100
AcDbLine
 10
1100.346856374082
 20
-9271.444272174903
 30
-0.0000000000000833
 11
1100.346856374082
 21
-8907.374272174932
 31
0.00000000000024
  0
LINE
  5
E4
330
2
100
AcDbEntity
  8
0
  6
Continuous
 62
     7
370
     5
100
AcDbLine
 10
1040.346856374082
 20
-8907.394271623335
 30
0.00000000000024
 11
1040.346856374082
 21
-9271.444272174903
 31
-0.0000000000000833
  0
LINE
  5
E5
330
2
100
AcDbEntity
  8
0
  6
Continuous
 62
     7
370
     5
100
AcDbLine
 10
1100.346856374082
 20
-8907.374272174932
 30
0.00000000000024
 11
1100.346856374082
 21
-8586.080918174392
 31
0.0000000000005254
  0
LINE
  5
E6
330
2
100
AcDbEntity
  8
0
  6
Continuous
 62
     7
370
     5
100
AcDbLine
 10
1040.346856374082
 20
-8528.894384694917
 30
0.0000000000005762
 11
1040.346856374082
 21
-8907.394271623335
 31
0.00000000000024
  0
LINE
  5
E7
330
2
100
AcDbEntity
  8
0
  6
Continuous
 62
     7
370
     5
100
AcDbLine
 10
1653.38685637408
 20
-9499.834272174906
 30
-0.0000000000003048
 11
1601.886856374082
 21
-9499.834272174906
 31
-0.0000000000003048
  0
LINE
  5
E8
330
2
100
AcDbEntity
  8
0
  6
Continuous
 62
     7
370
     5
100
AcDbLine
 10
1601.886856374082
 20
-9499.834272174906
 30
-0.0000000000002862
 11
1601.886856374082
 21
-9559.834272174908
 31
-0.0000000000003395
  0
LINE
  5
E9
330
2
100
AcDbEntity
  8
0
  6
Continuous
 62
     7
370
     5
100
AcDbLine
 10
1601.886856374082
 20
-9559.834272174908
 30
-0.0000000000003395
 11
1713.386856374081
 21
-9559.834272174908
 31
-0.0000000000003395
  0
LINE
  5
EA
330
2
100
AcDbEntity
  8
0
  6
Continuous
 62
     7
370
     5
100
AcDbLine
 10
1151.886856374082
 20
-9499.834272174906
 30
-0.0000000000003048
 11
1100.346856374081
 21
-9499.834272174906
 31
-0.0000000000003048
  0
LINE
  5
EB
330
2
100
AcDbEntity
  8
0
  6
Continuous
 62
     7
370
     5
100
AcDbLine
 10
1040.346856374082
 20
-9559.834272174903
 30
-0.0000000000003395
 11
1151.886856374082
 21
-9559.834272174903
 31
-0.0000000000003395
  0
LINE
  5
EC
330
2
100
AcDbEntity
  8
0
  6
Continuous
 62
     7
370
     5
100
AcDbLine
 10
1151.886856374082
 20
-9559.834272174903
 30
-0.0000000000003395
 11
1151.886856374082
 21
-9499.834272174906
 31
-0.0000000000002862
  0
LINE
  5
ED
330
2
100
AcDbEntity
  8
0
  6
Continuous
 62
     7
370
     5
100
AcDbLine
 10
1653.386856374082
 20
-8990.374272174937
 30
0.0000000000001663
 11
1653.386856374082
 21
-9320.394272174906
 31
-0.0000000000001268
  0
LINE
  5
EE
330
2
100
AcDbEntity
  8
0
  6
Continuous
 62
     7
370
     5
100
AcDbLine
 10
1713.386856374081
 20
-9320.394272174906
 30
-0.0000000000001268
 11
1713.386856374081
 21
-9050.374272174932
 31
0.000000000000113
  0
LINE
  5
EF
330
2
100
AcDbEntity
  8
0
  6
Continuous
 62
     7
370
     5
100
AcDbLine
 10
1653.386856374082
 20
-8990.374272174937
 30
0.0000000000001663
 11
1814.346856732718
 21
-8990.374272174937
 31
0.0000000000001477
  0
LINE
  5
F0
330
2
100
AcDbEntity
  8
0
  6
Continuous
 62
     7
370
     5
100
AcDbLine
 10
1653.386856374082
 20
-9320.394272174906
 30
-0.0000000000001268
 11
1653.38685637408
 21
-9499.834272174906
 31
-0.0000000000002862
  0
LINE
  5
F1
330
2
100
AcDbEntity
  8
0
  6
Continuous
 62
     7
370
     5
100
AcDbLine
 10
1713.38685637408
 20
-9559.834272174908
 30
-0.0000000000003395
 11
1713.386856374081
 21
-9320.394272174906
 31
-0.0000000000001268
  0
HATCH
  5
F2
330
2
100
AcDbEntity
  8
0
 48
4.0
370
     5
100
AcDbHatch
 10
0.0
 20
0.0
 30
0.0
210
0.0
220
0.0
230
1.0
  2
SOLID
 70
     1
 71
     1
 91
        1
 92
        7
 72
     0
 73
     1
 93
       10
 10
2086.846856732724
 20
-9050.374272174932
 10
2434.346856732723
 20
-9050.374272174932
 10
2434.346856732723
 20
-8917.874272174932
 10
2434.346856732725
 20
-8667.874272174932
 10
2374.346856732727
 20
-8667.874272174932
 10
2374.346856732724
 20
-8917.874272174932
 10
2374.346856732724
 20
-8990.374272174937
 10
2086.846856732724
 20
-8990.374272174937
 10
1914.346856732717
 20
-8990.374272174937
 10
1914.346856732717
 20
-9050.374272174932
 97
       10
330
FB
330
FC
330
FA
330
FD
330
F3
330
104
330
105
330
106
330
F4
330
FE
 75
     0
 76
     1
 47
1.044271318912175
 98
        1
 10
2074.304190438175
 20
-9025.449775469946
1001
ACAD
1010
0.0
1020
0.0
1030
0.0
  0
LINE
  5
F3
102
{ACAD_REACTORS
330
F2
102
}
330
2
100
AcDbEntity
  8
0
  6
Continuous
 62
     7
370
     5
100
AcDbLine
 10
2374.346856732724
 20
-8990.374272174937
 30
0.0000000000001477
 11
2086.846856732724
 21
-8990.374272174937
 31
0.0000000000001477
  0
LINE
  5
F4
102
{ACAD_REACTORS
330
F2
102
}
330
2
100
AcDbEntity
  8
0
  6
Continuous
 62
     7
370
     5
100
AcDbLine
 10
2086.846856732724
 20
-9050.374272174932
 30
0.000000000000113
 11
2434.346856732723
 21
-9050.374272174932
 31
0.000000000000113
  0
LINE
  5
F5
330
2
100
AcDbEntity
  8
0
  6
Continuous
 62
     7
370
     5
100
AcDbLine
 10
2374.346856732729
 20
-8167.914271623351
 30
0.0000000000008968
 11
2374.346856732729
 21
-8237.874271623352
 31
0.0000000000008347
  0
LINE
  5
F6
330
2
100
AcDbEntity
  8
0
  6
Continuous
 62
     7
370
     5
100
AcDbLine
 10
2434.346856732729
 20
-8237.874271623352
 30
0.0000000000008347
 11
2434.346856732729
 21
-8107.914271623352
 31
0.0000000000009501
  0
LINE
  5
F7
330
2
100
AcDbEntity
  8
0
  6
Continuous
 62
     7
370
     5
100
AcDbLine
 10
2374.346856732726
 20
-8237.874271623352
 30
0.0000000000008347
 11
2374.346856732727
 21
-8487.874272174932
 31
0.0000000000006126
  0
LINE
  5
F8
102
{ACAD_REACTORS
330
2AF
102
}
330
2
100
AcDbEntity
  8
0
  6
Continuous
 62
     7
370
     5
100
AcDbLine
 10
2374.346856732727
 20
-8487.874272174932
 30
0.0000000000006126
 11
2434.346856732727
 21
-8487.874272174932
 31
0.0000000000006126
  0
LINE
  5
F9
330
2
100
AcDbEntity
  8
0
  6
Continuous
 62
     7
370
     5
100
AcDbLine
 10
2434.346856732727
 20
-8487.874272174932
 30
0.0000000000006126
 11
2434.346856732725
 21
-8237.874271623352
 31
0.0000000000008347
  0
LINE
  5
FA
102
{ACAD_REACTORS
330
F2
102
}
330
2
100
AcDbEntity
  8
0
  6
Continuous
 62
     7
370
     5
100
AcDbLine
 10
2374.346856732726
 20
-8667.874272174932
 30
0.0000000000004528
 11
2374.346856732724
 21
-8917.874272174932
 31
0.0000000000002307
  0
LINE
  5
FB
102
{ACAD_REACTORS
330
F2
102
}
330
2
100
AcDbEntity
  8
0
  6
Continuous
 62
     7
370
     5
100
AcDbLine
 10
2434.346856732725
 20
-8917.874272174932
 30
0.0000000000002307
 11
2434.346856732725
 21
-8667.874272174932
 31
0.0000000000004528
  0
LINE
  5
FC
102
{ACAD_REACTORS
330
F2
330
2AF
102
}
330
2
100
AcDbEntity
  8
0
  6
Continuous
 62
     7
370
     5
100
AcDbLine
 10
2434.346856732725
 20
-8667.874272174932
 30
0.0000000000004528
 11
2374.346856732726
 21
-8667.874272174932
 31
0.0000000000004528
  0
LINE
  5
FD
102
{ACAD_REACTORS
330
F2
102
}
330
2
100
AcDbEntity
  8
0
  6
Continuous
 62
     7
370
     5
100
AcDbLine
 10
2374.346856732724
 20
-8917.874272174932
 30
0.0000000000002307
 11
2374.346856732724
 21
-8990.374272174937
 31
0.0000000000001663
  0
LINE
  5
FE
102
{ACAD_REACTORS
330
F2
102
}
330
2
100
AcDbEntity
  8
0
  6
Continuous
 62
     7
370
     5
100
AcDbLine
 10
2434.346856732723
 20
-9050.374272174932
 30
0.000000000000113
 11
2434.346856732723
 21
-8917.874272174932
 31
0.0000000000002307
  0
LINE
  5
FF
102
{ACAD_REACTORS
330
2AE
102
}
330
2
100
AcDbEntity
  8
0
  6
Continuous
 62
     7
370
     5
100
AcDbLine
 10
2131.846856732729
 20
-8167.914271623351
 30
0.0000000000008968
 11
2131.846856732729
 21
-8107.914271623355
 31
0.0000000000009501
  0
LINE
  5
100
330
2
100
AcDbEntity
  8
0
  6
Continuous
 62
     7
370
     5
100
AcDbLine
 10
2131.846856732729
 20
-8107.914271623355
 30
0.0000000000009501
 11
2064.216856732728
 21
-8107.914271623355
 31
0.0000000000009501
  0
LINE
  5
101
330
2
100
AcDbEntity
  8
0
  6
Continuous
 62
     7
370
     5
100
AcDbLine
 10
2311.846856732729
 20
-8167.914271623351
 30
0.0000000000009155
 11
2374.346856732729
 21
-8167.914271623351
 31
0.0000000000009155
  0
LINE
  5
102
330
2
100
AcDbEntity
  8
0
  6
Continuous
 62
     7
370
     5
100
AcDbLine
 10
2434.346856732729
 20
-8107.914271623355
 30
0.0000000000009501
 11
2311.846856732729
 21
-8107.914271623355
 31
0.0000000000009501
  0
LINE
  5
103
102
{ACAD_REACTORS
330
2AE
102
}
330
2
100
AcDbEntity
  8
0
  6
Continuous
 62
     7
370
     5
100
AcDbLine
 10
2311.846856732729
 20
-8107.914271623355
 30
0.0000000000009501
 11
2311.846856732729
 21
-8167.914271623351
 31
0.0000000000008968
  0
LINE
  5
104
102
{ACAD_REACTORS
330
F2
102
}
330
2
100
AcDbEntity
  8
0
  6
Continuous
 62
     7
370
     5
100
AcDbLine
 10
1914.346856732718
 20
-8990.374272174937
 30
0.0000000000001477
 11
2086.846856732724
 21
-8990.374272174937
 31
0.0000000000001477
  0
LINE
  5
105
102
{ACAD_REACTORS
330
F2
102
}
330
2
100
AcDbEntity
  8
0
  6
Continuous
 62
     7
370
     5
100
AcDbLine
 10
1914.346856732718
 20
-8990.374272174937
 30
0.0000000000001663
 11
1914.346856732718
 21
-9050.374272174932
 31
0.000000000000113
  0
LINE
  5
106
102
{ACAD_REACTORS
330
F2
102
}
330
2
100
AcDbEntity
  8
0
  6
Continuous
 62
     7
370
     5
100
AcDbLine
 10
1914.346856732718
 20
-9050.374272174932
 30
0.000000000000113
 11
2086.846856732724
 21
-9050.374272174932
 31
0.000000000000113
  0
LINE
  5
107
330
2
100
AcDbEntity
  8
0
  6
Continuous
 62
     7
370
     5
100
AcDbLine
 10
1713.386856374081
 20
-9050.374272174932
 30
0.000000000000113
 11
1814.346856732718
 21
-9050.374272174932
 31
0.000000000000113
  0
LINE
  5
108
330
2
100
AcDbEntity
  8
0
  6
Continuous
 62
     7
370
     5
100
AcDbLine
 10
1814.346856732718
 20
-9050.374272174932
 30
0.000000000000113
 11
1814.346856732718
 21
-8990.374272174937
 31
0.0000000000001663
  0
LINE
  5
109
330
2
100
AcDbEntity
  8
0
  6
Continuous
 62
     7
370
     5
100
AcDbLine
 10
2009.21685673273
 20
-8167.914271623351
 30
0.0000000000008968
 11
2131.846856732729
 21
-8167.914271623351
 31
0.0000000000009155
  0
LINE
  5
10A
102
{ACAD_REACTORS
330
2AD
102
}
330
2
100
AcDbEntity
  8
0
  6
Continuous
 62
    40
370
     5
390
9E
100
AcDbLine
 10
1147.345288309045
 20
-8586.080918174396
 30
0.0000000000005416
 11
1247.345288309045
 21
-8586.080918174396
 31
0.0000000000005416
  0
LINE
  5
10B
330
2
100
AcDbEntity
  8
0
  6
Continuous
 62
    40
370
     5
100
AcDbLine
 10
1814.346856732718
 20
-8990.374272174937
 30
0.0000000000001477
 11
1914.346856732718
 21
-8990.374272174937
 31
0.0000000000001477
  0
LINE
  5
10C
102
{ACAD_REACTORS
330
2AE
102
}
330
2
100
AcDbEntity
  8
0
  6
Continuous
 62
    40
370
     5
100
AcDbLine
 10
2131.846856732729
 20
-8107.914271623355
 30
0.0000000000009501
 11
2311.846856732729
 21
-8107.914271623355
 31
0.0000000000009501
  0
LINE
  5
10D
102
{ACAD_REACTORS
330
2AE
102
}
330
2
100
AcDbEntity
  8
0
  6
Continuous
 62
    40
370
     5
100
AcDbLine
 10
2131.846856732729
 20
-8167.914271623351
 30
0.0000000000009155
 11
2311.846856732729
 21
-8167.914271623351
 31
0.0000000000009155
  0
LINE
  5
10E
102
{ACAD_REACTORS
330
2AD
102
}
330
2
100
AcDbEntity
  8
0
  6
Continuous
 62
     7
370
     5
100
AcDbLine
 10
1247.345288309045
 20
-8586.080918174392
 30
0.0000000000005416
 11
1247.345288309047
 21
-8528.89438469492
 31
0.0000000000005762
  0
LINE
  5
10F
330
2
100
AcDbEntity
  8
0
  6
Continuous
 62
     7
370
     5
100
AcDbLine
 10
1724.216856732741
 20
-8167.914271623358
 30
0.0000000000009501
 11
1724.216856732742
 21
-8127.914271623351
 31
0.0000000000009501
  0
LINE
  5
110
330
2
100
AcDbEntity
  8
0
  6
Continuous
 62
     7
370
     5
100
AcDbLine
 10
2009.21685673273
 20
-8127.914271623358
 30
0.0000000000008968
 11
2009.216856732728
 21
-8167.914271623351
 31
0.0000000000008968
  0
LINE
  5
111
102
{ACAD_REACTORS
330
2AF
102
}
330
2
100
AcDbEntity
  8
0
  6
Continuous
 62
    40
370
     5
100
AcDbLine
 10
2374.346856732727
 20
-8487.874272174932
 30
0.0000000000006126
 11
2374.346856732726
 21
-8667.874272174932
 31
0.0000000000004528
  0
LINE
  5
112
102
{ACAD_REACTORS
330
2AF
102
}
330
2
100
AcDbEntity
  8
0
  6
Continuous
 62
    40
370
     5
100
AcDbLine
 10
2434.346856732727
 20
-8487.874272174932
 30
0.0000000000006126
 11
2434.346856732725
 21
-8667.874272174932
 31
0.0000000000004528
  0
HATCH
  5
113
330
2
100
AcDbEntity
  8
0
 48
4.0
370
     5
100
AcDbHatch
 10
0.0
 20
0.0
 30
0.0000000000010858
210
0.0
220
0.0
230
1.0
  2
SOLID
 70
     1
 71
     0
 91
        2
 92
        1
 93
        8
 72
     1
 10
1147.345288309047
 20
-8586.081095323192
 11
1147.345288309047
 21
-8528.89438469492
 72
     1
 10
1147.345288309047
 20
-8528.89438469492
 11
1040.346856374082
 21
-8528.89438469492
 72
     1
 10
1040.346856374082
 20
-8528.89438469492
 11
1040.346856374082
 21
-9559.834272174903
 72
     1
 10
1040.346856374082
 20
-9559.834272174903
 11
1151.886856374082
 21
-9559.834272174908
 72
     1
 10
1151.886856374082
 20
-9559.834272174908
 11
1151.886856374082
 21
-9499.834272174906
 72
     1
 10
1151.886856374082
 20
-9499.834272174906
 11
1100.346856374081
 21
-9499.834272174906
 72
     1
 10
1100.346856374081
 20
-9499.834272174906
 11
1100.346856374152
 21
-8586.080918174392
 72
     1
 10
1100.346856374152
 20
-8586.080918174392
 11
1147.345288309047
 21
-8586.081095323192
 97
        0
 92
        1
 93
       16
 72
     1
 10
1247.345288309047
 20
-8528.89438469492
 11
1247.345288309047
 21
-8586.081472248118
 72
     1
 10
1247.345288309047
 20
-8586.081472248118
 11
1354.215054249078
 21
-8586.081875066899
 72
     1
 10
1354.215054249078
 20
-8586.081875066899
 11
1354.216630427001
 21
-8167.914271623358
 72
     1
 10
1354.216630427001
 20
-8167.914271623358
 11
1724.216856732741
 21
-8167.914271623372
 72
     1
 10
1724.216856732741
 20
-8167.914271623372
 11
1724.216856732742
 21
-8127.914271623351
 72
     1
 10
1724.216856732742
 20
-8127.914271623351
 11
2009.21685673273
 21
-8127.914271623366
 72
     1
 10
2009.21685673273
 20
-8127.914271623366
 11
2009.216856732728
 21
-8167.914271623351
 72
     1
 10
2009.216856732728
 20
-8167.914271623351
 11
2131.846856732729
 21
-8167.914271623351
 72
     1
 10
2131.846856732729
 20
-8167.914271623351
 11
2131.846856732729
 21
-8107.914271623355
 72
     1
 10
2131.846856732729
 20
-8107.914271623355
 11
2064.216856732728
 21
-8107.914271623355
 72
     1
 10
2064.216856732728
 20
-8107.914271623355
 11
2064.216856732727
 21
-8067.914271623363
 72
     1
 10
2064.216856732727
 20
-8067.914271623363
 11
1664.216856732741
 21
-8067.914271623347
 72
     1
 10
1664.216856732741
 20
-8067.914271623347
 11
1664.216856732741
 21
-8107.914271623357
 72
     1
 10
1664.216856732741
 20
-8107.914271623357
 11
1294.216856586934
 21
-8107.912877001139
 72
     1
 10
1294.216856586934
 20
-8107.912877001139
 11
1294.216856586934
 21
-8528.89438469492
 72
     1
 10
1294.216856586934
 20
-8528.89438469492
 11
1247.345288309047
 21
-8528.89438469492
 97
        0
 75
     0
 76
     1
 98
        1
 10
1440.771356161213
 20
-8157.609389517071
1001
ACAD
1010
0.0
1020
0.0
1030
0.0
  0
HATCH
  5
114
330
2
100
AcDbEntity
  8
0
 48
4.0
370
     5
100
AcDbHatch
 10
0.0
 20
0.0
 30
0.0
210
0.0
220
0.0
230
1.0
  2
SOLID
 70
     1
 71
     0
 91
        1
 92
        7
 72
     0
 73
     1
 93
        8
 10
1713.38685637408
 20
-9050.374272174932
 10
1814.346856732718
 20
-9050.374272174932
 10
1814.346856732718
 20
-8990.374272174937
 10
1653.386856374082
 20
-8990.374272174937
 10
1653.3868563741
 20
-9499.834272174906
 10
1601.886856374082
 20
-9499.834272174906
 10
1601.886856374082
 20
-9559.834272174908
 10
1713.38685637408
 20
-9559.834272174908
 97
        0
 75
     0
 76
     1
 47
0.591149223108057
 98
        1
 10
1693.138445460143
 20
-9436.106164684249
1001
ACAD
1010
0.0
1020
0.0
1030
0.0
  0
HATCH
  5
115
330
2
100
AcDbEntity
  8
0
 48
4.0
370
     5
100
AcDbHatch
 10
0.0
 20
0.0
 30
0.0
210
0.0
220
0.0
230
1.0
  2
SOLID
 70
     1
 71
     0
 91
        1
 92
        7
 72
     0
 73
     1
 93
        6
 10
2434.346856732729
 20
-8107.914271623355
 10
2311.846856732729
 20
-8107.914271623355
 10
2311.846856732729
 20
-8167.914271623351
 10
2374.346856732727
 20
-8167.914271623351
 10
2374.346856732727
 20
-8487.874272174932
 10
2434.346856732727
 20
-8487.874272174932
 97
        0
 75
     0
 76
     1
 47
1.325372652675925
 98
        1
 10
2396.340697454863
 20
-8223.731237351
1001
ACAD
1010
0.0
1020
0.0
1030
0.0
  0
LINE
  5
116
330
2
100
AcDbEntity
  8
0
  6
Continuous
 62
     8
370
     5
390
53
100
AcDbLine
 10
2644.386856732743
 20
-8225.414271623348
 30
0.0000000000018005
 11
2739.386856732734
 21
-8225.414271623348
 31
0.0000000000018005
  0
LINE
  5
117
330
2
100
AcDbEntity
  8
0
  6
Continuous
 62
     8
370
     5
390
53
100
AcDbLine
 10
2644.386856732743
 20
-8492.917848440644
 30
0.0000000000015629
 11
2734.386856732744
 21
-8492.914272174948
 31
0.0000000000015629
  0
LINE
  5
118
330
2
100
AcDbEntity
  8
0
370
     5
100
AcDbLine
 10
2734.386856732736
 20
-8225.414271623348
 30
0.0000000000018005
 11
2741.544528831181
 21
-8225.414271623348
 31
0.0000000000018005
  0
LINE
  5
119
330
2
100
AcDbEntity
  8
0
370
     5
100
AcDbLine
 10
2741.592653758946
 20
-8243.916610573549
 30
0.0000000000017841
 11
2751.701150122455
 21
-8239.219457725877
 31
0.0000000000017883
  0
LINE
  5
11A
330
2
100
AcDbEntity
  8
0
370
     5
100
AcDbLine
 10
2741.612005697451
 20
-8275.981185594913
 30
0.0000000000017556
 11
2786.729226188569
 21
-8259.729257444298
 31
0.00000000000177
  0
LINE
  5
11B
330
2
100
AcDbEntity
  8
0
370
     5
100
AcDbLine
 10
2741.631357635955
 20
-8308.045760616275
 30
0.0000000000017271
 11
2767.153586119597
 21
-8302.834874920252
 31
0.0000000000017318
  0
LINE
  5
11C
330
2
100
AcDbEntity
  8
0
370
     5
100
AcDbLine
 10
2741.65070957446
 20
-8340.110335637636
 30
0.0000000000016987
 11
2794.905676012115
 21
-8336.288917332742
 31
0.000000000001702
  0
LINE
  5
11D
330
2
100
AcDbEntity
  8
0
370
     5
100
AcDbLine
 10
2741.670061512965
 20
-8372.174910658998
 30
0.0000000000016702
 11
2767.779205991519
 21
-8373.760507290883
 31
0.0000000000016688
  0
LINE
  5
11E
330
2
100
AcDbEntity
  8
0
370
     5
100
AcDbLine
 10
2741.689413451468
 20
-8404.239485680362
 30
0.0000000000016417
 11
2791.579258647204
 21
-8413.882660291605
 31
0.0000000000016331
  0
LINE
  5
11F
330
2
100
AcDbEntity
  8
0
370
     5
100
AcDbLine
 10
2741.708765389974
 20
-8436.30406070172
 30
0.0000000000016132
 11
2762.544383797142
 21
-8443.323474832508
 31
0.000000000001607
  0
ARC
  5
120
330
2
100
AcDbEntity
  8
0
370
     5
100
AcDbCircle
 10
2738.788834384637
 20
-8299.007573971778
 30
0.0000000000017352
 40
73.64487763877284
100
AcDbArc
 50
8.053470876210589
 51
87.85556667635276
  0
ARC
  5
121
330
2
100
AcDbEntity
  8
0
370
     5
100
AcDbCircle
 10
2740.754345678857
 20
-8421.382370104446
 30
0.0000000000016208
 40
71.96629322150265
100
AcDbArc
 50
264.9239022477094
 51
350.3741720389967
  0
LINE
  5
122
330
2
100
AcDbEntity
  8
0
370
     5
100
AcDbLine
 10
2811.707408213841
 20
-8433.416084283782
 30
0.0000000000016158
 11
2811.70740821384
 21
-8288.690132760647
 31
0.0000000000017443
  0
LINE
  5
123
330
2
100
AcDbEntity
  8
0
370
     5
100
AcDbLine
 10
5410.430308745292
 20
-9115.373830303841
 30
0.0000000000000553
 11
5357.040263077841
 21
-9115.373830303841
 31
0.0000000000000553
  0
LINE
  5
124
330
2
100
AcDbEntity
  8
0
370
     5
100
AcDbLine
 10
5357.040263077841
 20
-9115.373830303841
 30
0.0000000000000553
 11
5357.040263077841
 21
-9168.763875971292
 31
0.0000000000000079
  0
LINE
  5
125
330
2
100
AcDbEntity
  8
0
370
     5
100
AcDbLine
 10
5357.040263077841
 20
-9168.763875971292
 30
0.0000000000000079
 11
5410.430308745292
 21
-9168.627471467679
 31
0.000000000000008
  0
LINE
  5
126
330
2
100
AcDbEntity
  8
0
370
     5
100
AcDbLine
 10
5410.430308745292
 20
-9168.627471467679
 30
0.000000000000008
 11
5410.430308745292
 21
-9115.373830303841
 31
0.0000000000000553
  0
LINE
  5
127
330
2
100
AcDbEntity
  8
0
370
     5
100
AcDbLine
 10
5343.388979137353
 20
-8069.606386064499
 30
0.0000000000009841
 11
5343.388979137346
 21
-7909.60638606449
 31
0.0000000000011262
  0
LINE
  5
128
330
2
100
AcDbEntity
  8
0
  6
Continuous
 62
   210
370
     5
100
AcDbLine
 10
4940.88897913735
 20
-7900.378856749954
 30
0.0000000000011344
 11
4910.888979137348
 21
-7900.378856749951
 31
0.0000000000011344
  0
HATCH
  5
129
330
2
100
AcDbEntity
  8
0
 48
4.0
370
     5
100
AcDbHatch
 10
0.0
 20
0.0
 30
0.0000000000081514
210
0.0
220
-0.0000000000000009
230
1.0
  2
SOLID
 70
     1
 71
     0
 91
        1
 92
        7
 72
     0
 73
     1
 93
        4
 10
5318.558979137355
 20
-8067.914271623363
 10
5338.388979137355
 20
-8067.914271623362
 10
5338.388979137355
 20
-8069.606386064497
 10
5318.558979137355
 20
-8069.606386064497
 97
        0
 75
     0
 76
     1
 47
0.1075416014029087
 98
        1
 10
5330.950777402009
 20
-8068.842511897775
1001
ACAD
1010
0.0
1020
0.0
1030
0.0
  0
HATCH
  5
12A
330
2
100
AcDbEntity
  8
0
 48
4.0
370
     5
100
AcDbHatch
 10
0.0
 20
0.0
 30
0.0000000000081514
210
0.0
220
-0.0000000000000009
230
1.0
  2
SOLID
 70
     1
 71
     0
 91
        1
 92
        7
 72
     0
 73
     1
 93
        4
 10
5338.388979137353
 20
-8067.914271623362
 10
5343.388979137353
 20
-8067.914271623362
 10
5343.388979137353
 20
-8069.606386064497
 10
5338.388979137355
 20
-8069.606386064497
 97
        0
 75
     0
 76
     1
 47
0.1075416014029087
 98
        1
 10
5340.634273769683
 20
-8069.057617448015
1001
ACAD
1010
0.0
1020
0.0
1030
0.0
  0
LINE
  5
12B
330
2
100
AcDbEntity
  8
0
  6
Continuous
 62
   210
370
     5
100
AcDbLine
 10
4648.392307971717
 20
-8492.914272307222
 30
0.0000000000006082
 11
4648.214215336316
 21
-8225.414271623353
 31
0.0000000000008457
  0
LINE
  5
12C
330
2
100
AcDbEntity
  8
0
  6
Continuous
 62
   210
370
     5
100
AcDbLine
 10
5348.388979137346
 20
-9252.914272174937
 30
-0.0000000000000669
 11
5318.388979137345
 21
-9252.914272174932
 31
-0.0000000000000669
  0
LINE
  5
12D
330
2
100
AcDbEntity
  8
0
  6
Continuous
 62
   210
370
     5
100
AcDbLine
 10
4738.388979137342
 20
-8672.914272174953
 30
0.0000000000004483
 11
4648.388979137336
 21
-8672.914272174947
 31
0.0000000000004483
  0
LINE
  5
12E
330
2
100
AcDbEntity
  8
0
  6
Continuous
 62
   210
370
     5
100
AcDbLine
 10
4738.388979137342
 20
-8492.914272174948
 30
0.0000000000006082
 11
4648.388979137336
 21
-8492.914272174948
 31
0.0000000000006082
  0
LINE
  5
12F
330
2
100
AcDbEntity
  8
0
  6
Continuous
 62
   210
370
     5
100
AcDbLine
 10
4708.388979137342
 20
-8492.914272174948
 30
0.0000000000006082
 11
4708.388979137342
 21
-8672.914272174951
 31
0.0000000000004483
  0
LINE
  5
130
330
2
100
AcDbEntity
  8
0
  6
Continuous
 62
   210
370
     5
100
AcDbLine
 10
4678.388979137338
 20
-8492.914272174948
 30
0.0000000000006082
 11
4678.388979137338
 21
-8672.914272174947
 31
0.0000000000004483
  0
LINE
  5
131
330
2
100
AcDbEntity
  8
0
  6
Continuous
 62
   210
370
     5
100
AcDbLine
 10
4648.388979137336
 20
-8672.914272174947
 30
0.0000000000004483
 11
4648.388979137336
 21
-8492.914272174948
 31
0.0000000000006082
  0
LINE
  5
132
330
2
100
AcDbEntity
  8
0
  6
Continuous
 62
   210
370
     5
100
AcDbLine
 10
5669.388979496
 20
-9201.624272174941
 30
-0.0000000000000213
 11
5348.388979137346
 21
-9201.624272174937
 31
-0.0000000000000213
  0
LINE
  5
133
330
2
100
AcDbEntity
  8
0
  6
Continuous
 62
   210
370
     5
100
AcDbLine
 10
5669.388979495998
 20
-9231.62427217494
 30
-0.0000000000000479
 11
5348.388979137346
 21
-9231.624272174938
 31
-0.0000000000000479
  0
HATCH
  5
134
330
2
100
AcDbEntity
  8
0
 48
4.0
370
     5
100
AcDbHatch
 10
0.0
 20
0.0
 30
0.0000000000081514
210
0.0
220
-0.0000000000000009
230
1.0
  2
SOLID
 70
     1
 71
     0
 91
        1
 92
        7
 72
     0
 73
     1
 93
        4
 10
5626.427649529436
 20
-9115.373830303841
 10
5664.388979495999
 20
-9115.373830303841
 10
5664.388979495999
 20
-9154.373813221296
 10
5626.427649529436
 20
-9154.373813221296
 97
        0
 75
     0
 76
     1
 47
0.3637271929300079
 98
        1
 10
5651.1619746336
 20
-9132.151184656684
1001
ACAD
1010
0.0
1020
0.0
1030
0.0
  0
HATCH
  5
135
330
2
100
AcDbEntity
  8
0
 48
4.0
370
     5
100
AcDbHatch
 10
0.0
 20
0.0
 30
0.0000000000081514
210
0.0
220
-0.0000000000000009
230
1.0
  2
SOLID
 70
     1
 71
     0
 91
        1
 92
        7
 72
     0
 73
     1
 93
        4
 10
5626.427649529436
 20
-9159.373813221296
 10
5664.388979495999
 20
-9159.373813221296
 10
5664.388979495999
 20
-9168.627471467679
 10
5626.427649529436
 20
-9168.627471467679
 97
        0
 75
     0
 76
     1
 47
0.3637271929300079
 98
        1
 10
5650.070259542101
 20
-9160.521922410843
1001
ACAD
1010
0.0
1020
0.0
1030
0.0
  0
HATCH
  5
136
330
2
100
AcDbEntity
  8
0
 48
4.0
370
     5
100
AcDbHatch
 10
0.0
 20
0.0
 30
0.0000000000081514
210
0.0
220
-0.0000000000000009
230
1.0
  2
SOLID
 70
     1
 71
     0
 91
        1
 92
        7
 72
     0
 73
     1
 93
        4
 10
5626.427649529436
 20
-9154.373813221296
 10
5664.388979495999
 20
-9154.373813221296
 10
5664.388979495999
 20
-9159.373813221296
 10
5626.427649529436
 20
-9159.373813221296
 97
        0
 75
     0
 76
     1
 47
0.2555030422937901
 98
        1
 10
5649.623640492579
 20
-9156.847944565679
1001
ACAD
1010
0.0
1020
0.0
1030
0.0
  0
HATCH
  5
137
330
2
100
AcDbEntity
  8
0
 48
4.0
370
     5
100
AcDbHatch
 10
0.0
 20
0.0
 30
0.0000000000081514
210
0.0
220
-0.0000000000000009
230
1.0
  2
SOLID
 70
     1
 71
     0
 91
        1
 92
        7
 72
     0
 73
     1
 93
        4
 10
5664.388979495999
 20
-9159.373813221296
 10
5669.388979496
 20
-9159.373813221296
 10
5669.388979496
 20
-9168.627471467679
 10
5664.388979495999
 20
-9168.627471467679
 97
        0
 75
     0
 76
     1
 47
0.2555030422937901
 98
        1
 10
5667.262023244409
 20
-9160.935999177276
1001
ACAD
1010
0.0
1020
0.0
1030
0.0
  0
HATCH
  5
138
330
2
100
AcDbEntity
  8
0
 48
4.0
370
     5
100
AcDbHatch
 10
0.0
 20
0.0
 30
0.0000000000081514
210
0.0
220
-0.0000000000000009
230
1.0
  2
SOLID
 70
     1
 71
     0
 91
        1
 92
        7
 72
     0
 73
     1
 93
        4
 10
5664.388979495999
 20
-9159.373813221296
 10
5669.388979496
 20
-9159.373813221296
 10
5669.388979496
 20
-9168.627471467679
 10
5664.388979495999
 20
-9168.627471467679
 97
        0
 75
     0
 76
     1
 47
0.2555030422937901
 98
        1
 10
5666.750757141257
 20
-9160.425002984174
1001
ACAD
1010
0.0
1020
0.0
1030
0.0
  0
HATCH
  5
139
330
2
100
AcDbEntity
  8
0
 48
4.0
370
     5
100
AcDbHatch
 10
0.0
 20
0.0
 30
0.0000000000081514
210
0.0
220
-0.0000000000000009
230
1.0
  2
SOLID
 70
     1
 71
     0
 91
        1
 92
        7
 72
     0
 73
     1
 93
        5
 10
5664.388979495999
 20
-9154.373813221296
 10
5665.427632446885
 20
-9154.373813221296
 10
5669.388979496
 20
-9158.335160270409
 10
5669.388979496
 20
-9159.373813221296
 10
5664.388979495999
 20
-9159.373813221296
 97
        0
 75
     0
 76
     1
 47
0.2555030422937901
 98
        1
 10
5665.217004648257
 20
-9157.869965307481
1001
ACAD
1010
0.0
1020
0.0
1030
0.0
  0
HATCH
  5
13A
330
2
100
AcDbEntity
  8
0
 48
4.0
370
     5
100
AcDbHatch
 10
0.0
 20
0.0
 30
0.0000000000081514
210
0.0
220
-0.0000000000000009
230
1.0
  2
SOLID
 70
     1
 71
     0
 91
        1
 92
        7
 72
     0
 73
     1
 93
        4
 10
5664.388979495999
 20
-9115.373830303841
 10
5665.427632446887
 20
-9115.373830303841
 10
5665.427632446887
 20
-9154.373813221296
 10
5664.388979495999
 20
-9154.373813221296
 97
        0
 75
     0
 76
     1
 47
0.0885640510249868
 98
        1
 10
5664.457733937489
 20
-9119.530194003528
1001
ACAD
1010
0.0
1020
0.0
1030
0.0
  0
LINE
  5
13B
330
2
100
AcDbEntity
  8
0
  6
Continuous
 62
   210
370
     5
100
AcDbLine
 10
5669.388979495998
 20
-9261.624272174932
 30
-0.0000000000000746
 11
5348.388979137346
 21
-9261.624272174934
 31
-0.0000000000000746
  0
LINE
  5
13C
330
2
100
AcDbEntity
  8
0
  6
Continuous
 62
   210
370
     5
100
AcDbLine
 10
5348.388979137346
 20
-9261.624272174934
 30
-0.0000000000000746
 11
5348.388979137344
 21
-9050.374272174932
 31
0.000000000000113
  0
LINE
  5
13D
330
2
100
AcDbEntity
  8
0
  6
Continuous
 62
   210
370
     5
100
AcDbLine
 10
4643.388979137347
 20
-8225.414271623348
 30
0.0000000000008457
 11
4643.388979137346
 21
-8107.914271623355
 31
0.0000000000009501
  0
ARC
  5
13E
330
2
100
AcDbEntity
  8
0
  6
Continuous
 62
   210
370
     5
100
AcDbCircle
 10
4943.388979137326
 20
-8107.914271623346
 30
0.0000000000009501
 40
299.9999999999807
100
AcDbArc
 50
96.21924844289488
 51
180.0
  0
ARC
  5
13F
330
2
100
AcDbEntity
  8
0
  6
Continuous
 62
   210
370
     5
100
AcDbCircle
 10
-4943.388979137344
 20
-8107.91427162335
 30
-0.0000000000081514
 40
269.9999999999985
210
0.0
220
0.0000000000000009
230
-1.0
100
AcDbArc
 50
0.0
 51
83.08652182029755
  0
LINE
  5
140
330
2
100
AcDbEntity
  8
0
  6
Continuous
 62
   210
370
     5
100
AcDbLine
 10
4673.388979137345
 20
-8225.414271623348
 30
0.0000000000008457
 11
4673.388979137345
 21
-8107.914271623352
 31
0.0000000000009501
  0
ARC
  5
141
330
2
100
AcDbEntity
  8
0
  6
Continuous
 62
   210
370
     5
100
AcDbCircle
 10
4943.388979137345
 20
-8107.914271623355
 30
0.0000000000009501
 40
270.0000000000007
100
AcDbArc
 50
96.91347817970244
 51
180.0
  0
ARC
  5
142
330
2
100
AcDbEntity
  8
0
  6
Continuous
 62
   210
370
     5
100
AcDbCircle
 10
-4943.388979137344
 20
-8107.914271623352
 30
-0.0000000000081514
 40
239.9999999999987
210
0.0
220
0.0000000000000009
230
-1.0
100
AcDbArc
 50
0.0
 51
82.21728561453888
  0
LINE
  5
143
330
2
100
AcDbEntity
  8
0
  6
Continuous
 62
   210
370
     5
100
AcDbLine
 10
4703.388979137346
 20
-8225.414271623348
 30
0.0000000000008457
 11
4703.388979137346
 21
-8107.914271623355
 31
0.0000000000009501
  0
ARC
  5
144
330
2
100
AcDbEntity
  8
0
  6
Continuous
 62
   210
370
     5
100
AcDbCircle
 10
4943.388979137345
 20
-8107.914271623355
 30
0.0000000000009501
 40
240.0000000000023
100
AcDbArc
 50
97.78271438546113
 51
180.0
  0
LINE
  5
145
330
2
100
AcDbEntity
  8
0
  6
Continuous
 62
   210
370
     5
100
AcDbLine
 10
4910.888979137349
 20
-7900.378856749951
 30
0.0000000000011344
 11
4910.888979137349
 21
-7809.679883934743
 31
0.000000000001215
  0
ARC
  5
146
330
2
100
AcDbEntity
  8
0
  6
Continuous
 62
   210
370
     5
100
AcDbCircle
 10
-4943.732349331633
 20
-8108.339994198265
 30
-0.0000000000081514
 40
210.5386464631035
210
0.0
220
0.0000000000000009
230
-1.0
100
AcDbArc
 50
41.13449727553957
 51
81.02538389766433
  0
ARC
  5
147
330
2
100
AcDbEntity
  8
0
  6
Continuous
 62
   210
370
     5
100
AcDbCircle
 10
-4943.38897913734
 20
-8107.914271623352
 30
-0.0000000000081514
 40
209.9999999999956
210
0.0
220
0.0000000000000009
230
-1.0
100
AcDbArc
 50
0.0
 51
41.10864280736072
  0
LINE
  5
148
330
2
100
AcDbEntity
  8
0
  6
Continuous
 62
   210
370
     5
100
AcDbLine
 10
5669.388979496
 20
-9171.624272174941
 30
0.0000000000000053
 11
5348.388979137346
 21
-9171.624272174936
 31
0.0000000000000053
  0
LINE
  5
149
330
2
100
AcDbEntity
  8
0
  6
Continuous
 62
   210
370
     5
100
AcDbLine
 10
5318.558979137353
 20
-8107.914271623355
 30
0.0000000000009501
 11
5318.558979137353
 21
-7839.679949241169
 31
0.0000000000011883
  0
LINE
  5
14A
330
2
100
AcDbEntity
  8
0
  6
Continuous
 62
   210
370
     5
100
AcDbLine
 10
4738.388979137337
 20
-8462.917848440644
 30
0.0000000000006348
 11
4673.388979137338
 21
-8462.917848440644
 31
0.0000000000006348
  0
LINE
  5
14B
330
2
100
AcDbEntity
  8
0
  6
Continuous
 62
   210
370
     5
100
AcDbLine
 10
4673.388979137338
 20
-8462.917848440644
 30
0.0000000000006348
 11
4673.388979137345
 21
-8255.414271623349
 31
0.0000000000008191
  0
LINE
  5
14C
330
2
100
AcDbEntity
  8
0
  6
Continuous
 62
   210
370
     5
100
AcDbLine
 10
4673.388979137345
 20
-8255.414271623349
 30
0.0000000000008191
 11
4738.388979137333
 21
-8255.414271623349
 31
0.0000000000008191
  0
LINE
  5
14D
330
2
100
AcDbEntity
  8
0
  6
Continuous
 62
   210
370
     5
100
AcDbLine
 10
4738.388979137333
 20
-8255.414271623349
 30
0.0000000000008191
 11
4738.388979137337
 21
-8225.414271623348
 31
0.0000000000008457
  0
LINE
  5
14E
330
2
100
AcDbEntity
  8
0
  6
Continuous
 62
   210
370
     5
100
AcDbLine
 10
4738.388979137337
 20
-8225.414271623348
 30
0.0000000000008457
 11
4643.388979137347
 21
-8225.414271623348
 31
0.0000000000008457
  0
LINE
  5
14F
330
2
100
AcDbEntity
  8
0
  6
Continuous
 62
   210
370
     5
100
AcDbLine
 10
4733.388979137342
 20
-8225.414271623348
 30
0.0000000000008457
 11
4733.388979137342
 21
-8107.914271623355
 31
0.0000000000009501
  0
ARC
  5
150
330
2
100
AcDbEntity
  8
0
  6
Continuous
 62
   210
370
     5
100
AcDbCircle
 10
4943.388979137344
 20
-8107.914271623355
 30
0.0000000000009501
 40
210.0000000000011
100
AcDbArc
 50
138.8913571926392
 51
180.0
  0
ARC
  5
151
330
2
100
AcDbEntity
  8
0
  6
Continuous
 62
   210
370
     5
100
AcDbCircle
 10
4943.732349331636
 20
-8108.339994198273
 30
0.0000000000009497
 40
210.5386464631095
100
AcDbArc
 50
98.9746161023357
 51
138.8655027244604
  0
LINE
  5
152
330
2
100
AcDbEntity
  8
0
  6
Continuous
 62
   210
370
     5
100
AcDbLine
 10
4940.888979137348
 20
-7900.378856749954
 30
0.0000000000011344
 11
4940.888979137348
 21
-7839.679979193279
 31
0.0000000000011883
  0
LINE
  5
153
330
2
100
AcDbEntity
  8
0
  6
Continuous
 62
   210
370
     5
100
AcDbLine
 10
4940.888979137348
 20
-7839.679979193279
 30
0.0000000000011883
 11
5313.388979137351
 21
-7839.67994964053
 31
0.0000000000011883
  0
LINE
  5
154
330
2
100
AcDbEntity
  8
0
  6
Continuous
 62
   210
370
     5
100
AcDbLine
 10
5734.388979495999
 20
-9559.834272174908
 30
-0.0000000000003395
 11
5734.388979495999
 21
-9719.914272174909
 31
-0.0000000000004816
  0
LINE
  5
155
330
2
100
AcDbEntity
  8
0
  6
Continuous
 62
   210
370
     5
100
AcDbLine
 10
5734.388979495999
 20
-9719.914272174909
 30
-0.0000000000004816
 11
6277.388979495996
 21
-9719.914272174909
 31
-0.0000000000004816
  0
LINE
  5
156
330
2
100
AcDbEntity
  8
0
  6
Continuous
 62
   210
370
     5
100
AcDbLine
 10
6277.388979495996
 20
-9719.914272174909
 30
-0.0000000000004816
 11
6277.388979495999
 21
-9559.834272174908
 31
-0.0000000000003395
  0
LINE
  5
157
330
2
100
AcDbEntity
  8
0
  6
Continuous
 62
   210
370
     5
100
AcDbLine
 10
6277.388979495996
 20
-9559.834272174908
 30
-0.0000000000003395
 11
5734.388979495999
 21
-9559.834272174908
 31
-0.0000000000003395
  0
LINE
  5
158
330
2
100
AcDbEntity
  8
0
  6
Continuous
 62
   210
370
     5
100
AcDbLine
 10
4738.388979137337
 20
-8767.053070167843
 30
0.0000000000003647
 11
4738.388979137335
 21
-8462.917848440644
 31
0.0000000000006348
  0
LINE
  5
159
330
2
100
AcDbEntity
  8
0
  6
Continuous
 62
   210
370
     5
100
AcDbLine
 10
4738.388979137337
 20
-8767.053070167843
 30
0.0000000000003647
 11
4943.388979137369
 21
-8767.053070167843
 31
0.0000000000003647
  0
LINE
  5
15A
330
2
100
AcDbEntity
  8
0
  6
Continuous
 62
     8
370
     5
390
53
100
AcDbLine
 10
6305.888979495996
 20
-8528.894271623352
 30
0.0000000000005762
 11
6305.888979495996
 21
-8528.584271623351
 31
0.0000000000005765
  0
LINE
  5
15B
330
2
100
AcDbEntity
  8
0
  6
Continuous
 62
     8
370
     5
390
53
100
AcDbLine
 10
6250.390547561034
 20
-8528.89427162335
 30
0.0000000000005762
 11
6305.888979495996
 21
-8528.89427162335
 31
0.0000000000005762
  0
LINE
  5
15C
330
2
100
AcDbEntity
  8
0
  6
Continuous
 62
     8
370
     5
390
53
100
AcDbLine
 10
5318.558979137353
 20
-7839.679949241172
 30
0.0000000000011883
 11
4940.888979137351
 21
-7839.679949241169
 31
0.0000000000011883
  0
LINE
  5
15D
330
2
100
AcDbEntity
  8
0
  6
Continuous
 62
     8
370
     5
390
53
100
AcDbLine
 10
4910.888979137351
 20
-7809.679949241169
 30
0.000000000001215
 11
5343.388979137353
 21
-7809.679949241169
 31
0.000000000001215
  0
LINE
  5
15E
330
2
100
AcDbEntity
  8
0
  6
Continuous
 62
     8
370
     5
390
53
100
AcDbLine
 10
4940.888979137351
 20
-7839.679949241169
 30
0.0000000000011883
 11
4940.88897913735
 21
-7900.378856749951
 31
0.0000000000011344
  0
LINE
  5
15F
330
2
100
AcDbEntity
  8
0
  6
Continuous
 62
     8
370
     5
390
53
100
AcDbLine
 10
4940.88897913735
 20
-7900.378856749951
 30
0.0000000000011344
 11
4910.888979137349
 21
-7900.378856749951
 31
0.0000000000011344
  0
LINE
  5
160
330
2
100
AcDbEntity
  8
0
  6
Continuous
 62
     8
370
     5
390
53
100
AcDbLine
 10
4910.888979137349
 20
-7900.378856749951
 30
0.0000000000011344
 11
4910.888979137351
 21
-7809.679949241169
 31
0.000000000001215
  0
LINE
  5
161
330
2
100
AcDbEntity
  8
0
  6
Continuous
 62
     8
370
     5
390
53
100
AcDbLine
 10
5343.388979137353
 20
-7809.679949241169
 30
0.000000000001215
 11
5343.388979137353
 21
-8069.606386064497
 31
0.0000000000009841
  0
LINE
  5
162
330
2
100
AcDbEntity
  8
0
  6
Continuous
 62
     8
370
     5
390
53
100
AcDbLine
 10
4738.388979137338
 20
-8225.414271623348
 30
0.0000000000008457
 11
4738.388979137338
 21
-8255.414271623349
 31
0.0000000000008191
  0
LINE
  5
163
330
2
100
AcDbEntity
  8
0
  6
Continuous
 62
     8
370
     5
390
53
100
AcDbLine
 10
4738.388979137338
 20
-8255.414271623349
 30
0.0000000000008191
 11
4673.388979137348
 21
-8255.414271623349
 31
0.0000000000008191
  0
LINE
  5
164
330
2
100
AcDbEntity
  8
0
  6
Continuous
 62
     8
370
     5
390
53
100
AcDbLine
 10
4673.388979137348
 20
-8255.414271623349
 30
0.0000000000008191
 11
4673.388979137341
 21
-8462.917848440644
 31
0.0000000000006348
  0
LINE
  5
165
330
2
100
AcDbEntity
  8
0
  6
Continuous
 62
     8
370
     5
390
53
100
AcDbLine
 10
4738.387092547879
 20
-8702.910695909258
 30
0.0000000000004216
 11
4738.387092547877
 21
-8767.05307016784
 31
0.0000000000003647
  0
LINE
  5
166
330
2
100
AcDbEntity
  8
0
  6
Continuous
 62
     8
370
     5
390
53
100
AcDbLine
 10
4708.387092547875
 20
-8797.053070167839
 30
0.000000000000338
 11
4708.387092547877
 21
-8702.910695909258
 31
0.0000000000004216
  0
LINE
  5
167
330
2
100
AcDbEntity
  8
0
  6
Continuous
 62
     8
370
     5
390
53
100
AcDbLine
 10
5343.388979137346
 20
-9252.914272174937
 30
-0.0000000000000669
 11
5313.388979137346
 21
-9252.914272174937
 31
-0.0000000000000669
  0
LINE
  5
168
330
2
100
AcDbEntity
  8
0
  6
Continuous
 62
     8
370
     5
390
53
100
AcDbLine
 10
5313.388979137346
 20
-9252.914272174937
 30
-0.0000000000000669
 11
5313.388979137344
 21
-9050.374272174932
 31
0.000000000000113
  0
LINE
  5
169
330
2
100
AcDbEntity
  8
0
  6
Continuous
 62
     8
370
     5
390
53
100
AcDbLine
 10
4673.388979137341
 20
-8462.917848440644
 30
0.0000000000006348
 11
4738.388979137338
 21
-8462.917848440644
 31
0.0000000000006348
  0
LINE
  5
16A
330
2
100
AcDbEntity
  8
0
  6
Continuous
 62
     8
370
     5
390
53
100
AcDbLine
 10
4738.388979137338
 20
-8462.917848440644
 30
0.0000000000006348
 11
4738.388979137338
 21
-8492.917848440642
 31
0.0000000000006082
  0
LINE
  5
16B
330
2
100
AcDbEntity
  8
0
  6
Continuous
 62
     8
370
     5
390
53
100
AcDbLine
 10
4738.388979137338
 20
-8672.910695909257
 30
0.0000000000004483
 11
4738.388979137338
 21
-8702.910695909258
 31
0.0000000000004216
  0
LINE
  5
16C
330
2
100
AcDbEntity
  8
0
  6
Continuous
 62
     8
370
     5
390
53
100
AcDbLine
 10
4738.388979137338
 20
-8702.910695909258
 30
0.0000000000004216
 11
4738.387092547879
 21
-8702.910695909258
 31
0.0000000000004216
  0
LINE
  5
16D
330
2
100
AcDbEntity
  8
0
  6
Continuous
 62
     8
370
     5
390
53
100
AcDbLine
 10
4738.388979137338
 20
-8672.910695909257
 30
0.0000000000004483
 11
4648.388979137338
 21
-8672.910695909257
 31
0.0000000000004483
  0
LINE
  5
16E
330
2
100
AcDbEntity
  8
0
  6
Continuous
 62
     8
370
     5
390
53
100
AcDbLine
 10
4708.387092547877
 20
-8702.910695909258
 30
0.0000000000004216
 11
4648.388979137338
 21
-8702.910695909258
 31
0.0000000000004216
  0
LINE
  5
16F
330
2
100
AcDbEntity
  8
0
  6
Continuous
 62
     8
370
     5
390
53
100
AcDbLine
 10
4648.388979137338
 20
-8702.910695909258
 30
0.0000000000004216
 11
4648.388979137338
 21
-8672.910695909257
 31
0.0000000000004483
  0
LINE
  5
170
330
2
100
AcDbEntity
  8
0
  6
Continuous
 62
     8
370
     5
390
53
100
AcDbLine
 10
4948.428979137355
 20
-8797.053070167844
 30
0.000000000000338
 11
4708.387092547875
 21
-8797.053070167839
 31
0.000000000000338
  0
LINE
  5
171
330
2
100
AcDbEntity
  8
0
  6
Continuous
 62
     8
370
     5
390
53
100
AcDbLine
 10
4738.387092547877
 20
-8767.05307016784
 30
0.0000000000003647
 11
4948.428979137355
 21
-8767.053070167843
 31
0.0000000000003647
  0
LINE
  5
172
330
2
100
AcDbEntity
  8
0
  6
Continuous
 62
     8
370
     5
390
53
100
AcDbLine
 10
4598.388979137344
 20
-8462.917848440637
 30
0.0000000000006348
 11
4643.388979137342
 21
-8462.917848440641
 31
0.0000000000006348
  0
LINE
  5
173
330
2
100
AcDbEntity
  8
0
370
     5
100
AcDbLine
 10
5318.388979137345
 20
-9110.490875530695
 30
0.0000000000000596
 11
5318.388979137345
 21
-9110.490875530695
 31
0.0000000000000596
  0
LINE
  5
174
330
2
100
AcDbEntity
  8
0
370
     5
100
AcDbLine
 10
5318.388979137345
 20
-9140.679057321955
 30
0.0000000000000328
 11
5318.388979137345
 21
-9140.679057321955
 31
0.0000000000000328
  0
LINE
  5
175
330
2
100
AcDbEntity
  8
0
370
     5
100
AcDbLine
 10
5318.388979137345
 20
-9183.865089555821
 30
-0.0000000000000055
 11
5318.388979137345
 21
-9183.865089555821
 31
-0.0000000000000055
  0
LINE
  5
176
330
2
100
AcDbEntity
  8
0
370
     5
100
AcDbLine
 10
4648.388979137346
 20
-8225.414271623348
 30
0.0000000000008457
 11
4641.231307038901
 21
-8225.414271623348
 31
0.0000000000008457
  0
LINE
  5
177
330
2
100
AcDbEntity
  8
0
370
     5
100
AcDbLine
 10
4926.931766094965
 20
-8797.053070167844
 30
0.000000000000338
 11
4922.744007612671
 21
-8866.906491562927
 31
0.000000000000276
  0
LINE
  5
178
330
2
100
AcDbEntity
  8
0
370
     5
100
AcDbLine
 10
4894.017340010158
 20
-8797.053070167844
 30
0.000000000000338
 11
4888.902408498378
 21
-8825.492744821957
 31
0.0000000000003128
  0
LINE
  5
179
330
2
100
AcDbEntity
  8
0
370
     5
100
AcDbLine
 10
4861.10291392535
 20
-8797.053070167844
 30
0.000000000000338
 11
4841.544203994807
 21
-8862.302430296827
 31
0.0000000000002801
  0
LINE
  5
17A
330
2
100
AcDbEntity
  8
0
370
     5
100
AcDbLine
 10
4828.188487840542
 20
-8797.053070167844
 30
0.000000000000338
 11
4815.331533273449
 21
-8827.69006228357
 31
0.0000000000003108
  0
LINE
  5
17B
330
2
100
AcDbEntity
  8
0
370
     5
100
AcDbLine
 10
4795.274061755733
 20
-8797.053070167844
 30
0.000000000000338
 11
4758.836082149723
 21
-8864.586348809099
 31
0.000000000000278
  0
LINE
  5
17C
330
2
100
AcDbEntity
  8
0
370
     5
100
AcDbLine
 10
4762.359635670928
 20
-8797.053070167839
 30
0.000000000000338
 11
4739.763164333477
 21
-8831.303371512618
 31
0.0000000000003076
  0
LINE
  5
17D
330
2
100
AcDbEntity
  8
0
370
     5
100
AcDbLine
 10
4729.445209586118
 20
-8797.053070167844
 30
0.000000000000338
 11
4693.985793864924
 21
-8839.249000931646
 31
0.0000000000003005
  0
LINE
  5
17E
330
2
100
AcDbEntity
  8
0
370
     5
100
AcDbLine
 10
4708.387092547877
 20
-8785.196761121277
 30
0.0000000000003486
 11
4690.650768017971
 21
-8798.292388763652
 31
0.0000000000003369
  0
LINE
  5
17F
330
2
100
AcDbEntity
  8
0
370
     5
100
AcDbLine
 10
4708.387092547877
 20
-8752.282335036468
 30
0.0000000000003778
 11
4670.741720300234
 21
-8767.453270216796
 31
0.0000000000003643
  0
LINE
  5
180
330
2
100
AcDbEntity
  8
0
370
     5
100
AcDbLine
 10
4708.387092547877
 20
-8719.367908951658
 30
0.000000000000407
 11
4682.999622356716
 21
-8722.716190953406
 31
0.0000000000004041
  0
LINE
  5
181
330
2
100
AcDbEntity
  8
0
370
     5
100
AcDbLine
 10
5313.316244820271
 20
-9244.226634358353
 30
-0.0000000000000591
 11
5306.315676149029
 21
-9249.783863795004
 31
-0.0000000000000641
  0
LINE
  5
182
330
2
100
AcDbEntity
  8
0
370
     5
100
AcDbLine
 10
5313.326635436993
 20
-9217.610582617869
 30
-0.0000000000000355
 11
5274.429902745772
 21
-9242.043563235489
 31
-0.0000000000000572
  0
LINE
  5
183
330
2
100
AcDbEntity
  8
0
370
     5
100
AcDbLine
 10
5313.337026053718
 20
-9190.994530877375
 30
-0.0000000000000119
 11
5290.246218546632
 21
-9202.284633644596
 31
-0.0000000000000219
  0
LINE
  5
184
330
2
100
AcDbEntity
  8
0
370
     5
100
AcDbLine
 10
5313.347416670445
 20
-9164.378479136889
 30
0.0000000000000118
 11
5255.655404049086
 21
-9185.81323815148
 31
-0.0000000000000073
  0
LINE
  5
185
330
2
100
AcDbEntity
  8
0
370
     5
100
AcDbLine
 10
5313.357807287172
 20
-9137.762427396399
 30
0.0000000000000354
 11
5278.942504270324
 21
-9147.355506397543
 31
0.0000000000000269
  0
LINE
  5
186
330
2
100
AcDbEntity
  8
0
370
     5
100
AcDbLine
 10
5313.368197903895
 20
-9111.146375655911
 30
0.0000000000000591
 11
5244.391957326119
 21
-9124.925616975167
 31
0.0000000000000468
  0
LINE
  5
187
330
2
100
AcDbEntity
  8
0
370
     5
100
AcDbLine
 10
5313.37858852062
 20
-9084.530323915421
 30
0.0000000000000827
 11
5280.975189684799
 21
-9088.444867358075
 31
0.0000000000000792
  0
LINE
  5
188
330
2
100
AcDbEntity
  8
0
370
     5
100
AcDbLine
 10
5313.388979137346
 20
-9057.914272174931
 30
0.0000000000001063
 11
5281.567515209355
 21
-9059.246333455639
 31
0.0000000000001052
  0
LINE
  5
189
330
2
100
AcDbEntity
  8
0
370
     5
100
AcDbLine
 10
4939.600684739058
 20
-7809.679949241169
 30
0.000000000001215
 11
4933.764502840462
 21
-7798.077481209067
 31
0.0000000000012253
  0
LINE
  5
18A
330
2
100
AcDbEntity
  8
0
370
     5
100
AcDbLine
 10
4985.257416930815
 20
-7809.679949241169
 30
0.000000000001215
 11
4970.030527434821
 21
-7756.266921315239
 31
0.0000000000012624
  0
LINE
  5
18B
330
2
100
AcDbEntity
  8
0
370
     5
100
AcDbLine
 10
5030.914149122573
 20
-7809.679949241169
 30
0.000000000001215
 11
5028.190211203848
 21
-7788.93098827352
 31
0.0000000000012334
  0
LINE
  5
18C
330
2
100
AcDbEntity
  8
0
370
     5
100
AcDbLine
 10
5076.570881314331
 20
-7809.679949241169
 30
0.000000000001215
 11
5077.094351936566
 21
-7755.151720969795
 31
0.0000000000012634
  0
LINE
  5
18D
330
2
100
AcDbEntity
  8
0
370
     5
100
AcDbLine
 10
5122.227613506087
 20
-7809.679949241169
 30
0.000000000001215
 11
5125.421535281556
 21
-7788.444014688614
 31
0.0000000000012339
  0
LINE
  5
18E
330
2
100
AcDbEntity
  8
0
370
     5
100
AcDbLine
 10
5167.884345697845
 20
-7809.679949241169
 30
0.000000000001215
 11
5183.609340903342
 21
-7755.66530301354
 31
0.000000000001263
  0
LINE
  5
18F
330
2
100
AcDbEntity
  8
0
370
     5
100
AcDbLine
 10
5213.541077889602
 20
-7809.679949241169
 30
0.000000000001215
 11
5222.248475612826
 21
-7789.513141345229
 31
0.0000000000012329
  0
LINE
  5
190
330
2
100
AcDbEntity
  8
0
370
     5
100
AcDbLine
 10
5259.197810081361
 20
-7809.679949241169
 30
0.000000000001215
 11
5287.691324890091
 21
-7759.895195229545
 31
0.0000000000012592
  0
LINE
  5
191
330
2
100
AcDbEntity
  8
0
370
     5
100
AcDbLine
 10
5304.854542273119
 20
-7809.679949241169
 30
0.000000000001215
 11
5320.222809352895
 21
-7791.229548583166
 31
0.0000000000012314
  0
LINE
  5
192
330
2
100
AcDbEntity
  8
0
370
     5
100
AcDbLine
 10
5343.388979137353
 20
-7816.80224456869
 30
0.0000000000012087
 11
5357.017507746996
 21
-7808.321123249696
 31
0.0000000000012162
  0
LINE
  5
193
330
2
100
AcDbEntity
  8
0
370
     5
100
AcDbLine
 10
5327.682908368998
 20
-7809.679949241169
 30
0.000000000001215
 11
5346.329544074131
 21
-7792.934393476092
 31
0.0000000000012299
  0
LINE
  5
194
330
2
100
AcDbEntity
  8
0
370
     5
100
AcDbLine
 10
5343.388979137353
 20
-7862.458976760446
 30
0.0000000000011681
 11
5411.35768267029
 21
-7833.944148540469
 31
0.0000000000011934
  0
LINE
  5
195
330
2
100
AcDbEntity
  8
0
370
     5
100
AcDbLine
 10
5343.388979137353
 20
-7908.115708952206
 30
0.0000000000011276
 11
5376.759782602579
 21
-7898.277199434493
 31
0.0000000000011363
  0
LINE
  5
196
330
2
100
AcDbEntity
  8
0
370
     5
100
AcDbLine
 10
5343.388979137349
 20
-7953.772441143964
 30
0.000000000001087
 11
5428.721588416873
 21
-7936.011089561748
 31
0.0000000000011028
  0
LINE
  5
197
330
2
100
AcDbEntity
  8
0
370
     5
100
AcDbLine
 10
5343.388979137351
 20
-7999.429173335721
 30
0.0000000000010465
 11
5381.582606929151
 21
-7994.659340627184
 31
0.0000000000010507
  0
LINE
  5
198
330
2
100
AcDbEntity
  8
0
370
     5
100
AcDbLine
 10
5343.388979137353
 20
-8045.085905527479
 30
0.0000000000010059
 11
5431.178979137357
 21
-8041.088145402012
 31
0.0000000000010095
  0
LINE
  5
199
330
2
100
AcDbEntity
  8
0
370
     5
100
AcDbLine
 10
5205.928979137357
 20
-9057.914272174931
 30
0.0000000000001063
 11
5206.613108315689
 21
-9177.70391218765
 31
-0.0000000000000001
  0
ARC
  5
19A
330
2
100
AcDbEntity
  8
0
370
     5
100
AcDbCircle
 10
5303.034555364924
 20
-9154.214574345173
 30
0.0000000000000208
 40
99.24134442532622
100
AcDbArc
 50
193.6912064236773
 51
275.9888997665288
  0
LINE
  5
19B
330
2
100
AcDbEntity
  8
0
370
     5
100
AcDbLine
 10
4941.428979137358
 20
-8917.874272174932
 30
0.0000000000002307
 11
4689.669253600235
 21
-8917.874272174932
 31
0.0000000000002307
  0
ARC
  5
19C
330
2
100
AcDbEntity
  8
0
370
     5
100
AcDbCircle
 10
5090.544595582162
 20
-8737.102312895176
 30
0.0000000000003913
 40
439.7494071297495
100
AcDbArc
 50
175.5406088534585
 51
204.2726643411032
  0
ARC
  5
19D
330
2
100
AcDbEntity
  8
0
370
     5
100
AcDbCircle
 10
5001.218809593332
 20
-7826.690255169079
 30
0.0000000000011999
 40
87.2391638315768
100
AcDbArc
 50
85.05469612279243
 51
165.3592848910914
  0
LINE
  5
19E
330
2
100
AcDbEntity
  8
0
370
     5
100
AcDbLine
 10
5006.996578965083
 20
-7739.642629772866
 30
0.0000000000012772
 11
5296.416380631487
 21
-7739.680396101917
 31
0.0000000000012772
  0
ARC
  5
19F
330
2
100
AcDbEntity
  8
0
370
     5
100
AcDbCircle
 10
5288.9135971289
 20
-7904.931154397242
 30
0.0000000000011304
 40
165.4209928560067
100
AcDbArc
 50
6.724869826488802
 51
87.40041850254661
  0
LINE
  5
1A0
330
2
100
AcDbEntity
  8
0
370
     5
100
AcDbLine
 10
5453.19647930097
 20
-7885.560054720045
 30
0.0000000000011476
 11
5453.19647930097
 21
-8062.874271623355
 31
0.0000000000009901
  0
LINE
  5
1A1
330
2
100
AcDbEntity
  8
0
  6
Continuous
 62
    40
370
     5
100
AcDbLine
 10
4963.928979137356
 20
-8667.874272174932
 30
0.0000000000004528
 11
4971.928979137356
 21
-8667.874272174932
 31
0.0000000000004528
  0
LINE
  5
1A2
330
2
100
AcDbEntity
  8
0
  6
Continuous
 62
    40
370
     5
100
AcDbLine
 10
4963.928979137354
 20
-8487.874272174932
 30
0.0000000000006126
 11
4971.928979137354
 21
-8487.874272174932
 31
0.0000000000006126
  0
LINE
  5
1A3
330
2
100
AcDbEntity
  8
0
  6
Continuous
 62
    40
370
     5
100
AcDbLine
 10
6235.430547561032
 20
-8544.894384694918
 30
0.000000000000562
 11
6235.430547561032
 21
-8551.894384694918
 31
0.0000000000005558
  0
LINE
  5
1A4
102
{ACAD_REACTORS
330
2B2
102
}
330
2
100
AcDbEntity
  8
0
  6
Continuous
 62
    40
370
     5
390
9E
100
AcDbLine
 10
6235.430547561032
 20
-8528.89438469492
 30
0.0000000000005762
 11
6135.430547561036
 21
-8528.89438469492
 31
0.0000000000005762
  0
LINE
  5
1A5
330
2
100
AcDbEntity
  8
0
  6
PARTER$0$HIDDEN2
 62
    40
370
     5
100
AcDbLine
 10
5250.928979137352
 20
-8123.414271623353
 30
0.0000000000009363
 11
5250.928979137352
 21
-8131.414271623354
 31
0.0000000000009292
  0
LINE
  5
1A6
330
2
100
AcDbEntity
  8
0
  6
PARTER$0$HIDDEN2
 62
    40
370
     5
100
AcDbLine
 10
5070.928979137352
 20
-8123.414271623353
 30
0.0000000000009363
 11
5070.928979137352
 21
-8131.414271623354
 31
0.0000000000009292
  0
LINE
  5
1A7
330
2
100
AcDbEntity
  8
0
  6
Continuous
 62
    40
370
     5
100
AcDbLine
 10
5788.888979495999
 20
-9534.334272174907
 30
-0.0000000000003168
 11
5780.888979495999
 21
-9534.334272174907
 31
-0.0000000000003168
  0
LINE
  5
1A8
330
2
100
AcDbEntity
  8
0
  6
Continuous
 62
    40
370
     5
100
AcDbLine
 10
5780.888979495999
 20
-9534.334272174907
 30
-0.0000000000003168
 11
5780.888979495999
 21
-9546.334272174908
 31
-0.0000000000003275
  0
LINE
  5
1A9
330
2
100
AcDbEntity
  8
0
  6
Continuous
 62
    40
370
     5
100
AcDbLine
 10
5780.888979495999
 20
-9546.334272174908
 30
-0.0000000000003275
 11
5788.888979495999
 21
-9546.334272174908
 31
-0.0000000000003275
  0
LINE
  5
1AA
330
2
100
AcDbEntity
  8
0
  6
Continuous
 62
    40
370
     5
100
AcDbLine
 10
5788.888979495999
 20
-9546.334272174908
 30
-0.0000000000003275
 11
5788.888979495999
 21
-9534.334272174907
 31
-0.0000000000003168
  0
LINE
  5
1AB
330
2
100
AcDbEntity
  8
0
  6
Continuous
 62
    40
370
     5
100
AcDbLine
 10
6222.888979496
 20
-9534.334272174907
 30
-0.0000000000003168
 11
6230.888979496
 21
-9534.334272174907
 31
-0.0000000000003168
  0
LINE
  5
1AC
330
2
100
AcDbEntity
  8
0
  6
Continuous
 62
    40
370
     5
100
AcDbLine
 10
6230.888979496
 20
-9534.334272174907
 30
-0.0000000000003168
 11
6230.888979496
 21
-9546.334272174908
 31
-0.0000000000003275
  0
LINE
  5
1AD
330
2
100
AcDbEntity
  8
0
  6
Continuous
 62
    40
370
     5
100
AcDbLine
 10
6230.888979496
 20
-9546.334272174908
 30
-0.0000000000003275
 11
6222.888979496
 21
-9546.334272174908
 31
-0.0000000000003275
  0
LINE
  5
1AE
330
2
100
AcDbEntity
  8
0
  6
Continuous
 62
    40
370
     5
100
AcDbLine
 10
6222.888979496
 20
-9546.334272174908
 30
-0.0000000000003275
 11
6222.888979496
 21
-9534.334272174907
 31
-0.0000000000003168
  0
LINE
  5
1AF
330
2
100
AcDbEntity
  8
0
  6
Continuous
 62
    40
370
     5
100
AcDbLine
 10
5468.428979137363
 20
-9034.374272174934
 30
0.0000000000001272
 11
5468.428979137363
 21
-9027.374272174931
 31
0.0000000000001335
  0
LINE
  5
1B0
330
2
100
AcDbEntity
  8
0
  6
Continuous
 62
    40
370
     5
100
AcDbLine
 10
5568.428979137363
 20
-9050.374272174932
 30
0.000000000000113
 11
5468.428979137363
 21
-9050.374272174932
 31
0.000000000000113
  0
LINE
  5
1B1
330
2
100
AcDbEntity
  8
0
  6
Continuous
 62
    40
370
     5
100
AcDbLine
 10
5568.428979137363
 20
-9034.374272174934
 30
0.0000000000001272
 11
5568.428979137363
 21
-9027.374272174931
 31
0.0000000000001335
  0
3DFACE
  5
1B2
330
2
100
AcDbEntity
  8
0
  6
Continuous
 62
     7
370
     5
100
AcDbFace
 10
5371.43032582784
 20
-9115.373830303841
 30
0.0000000000000553
 11
5371.43032582784
 21
-9154.373813221296
 31
0.0000000000000207
 12
5357.040263077841
 22
-9168.763875971292
 32
0.0000000000000079
 13
5357.040263077841
 23
-9115.373830303841
 33
0.0000000000000553
  0
3DFACE
  5
1B3
330
2
100
AcDbEntity
  8
0
  6
Continuous
 62
     7
370
     5
100
AcDbFace
 10
5410.430308745292
 20
-9115.373830303841
 30
0.0000000000000553
 11
5371.43032582784
 21
-9115.373830303841
 31
0.0000000000000553
 12
5357.040263077841
 22
-9115.373830303841
 32
0.0000000000000553
 13
5410.430308745292
 23
-9115.373830303841
 33
0.0000000000000553
  0
3DFACE
  5
1B4
330
2
100
AcDbEntity
  8
0
  6
Continuous
 62
     7
370
     5
100
AcDbFace
 10
5410.430308745292
 20
-9154.373813221296
 30
0.0000000000000207
 11
5410.430308745292
 21
-9115.373830303841
 31
0.0000000000000553
 12
5410.430308745292
 22
-9115.373830303841
 32
0.0000000000000553
 13
5410.430308745292
 23
-9168.763875971292
 33
0.0000000000000079
  0
HATCH
  5
1B5
330
2
100
AcDbEntity
  8
0
 48
4.0
370
     5
100
AcDbHatch
 10
0.0
 20
0.0
 30
0.0000000000081514
210
0.0
220
-0.0000000000000009
230
1.0
  2
SOLID
 70
     1
 71
     0
 91
        1
 92
        7
 72
     0
 73
     1
 93
        4
 10
5366.430325827838
 20
-9159.373813221296
 10
5410.430308745292
 20
-9159.373813221296
 10
5410.430308745292
 20
-9168.627471467679
 10
5357.176667581452
 20
-9168.627471467679
 97
        0
 75
     0
 76
     1
 47
0.2856015914270995
 98
        1
 10
5394.823532524569
 20
-9159.864979965822
1001
ACAD
1010
0.0
1020
0.0
1030
0.0
  0
HATCH
  5
1B6
330
2
100
AcDbEntity
  8
0
 48
4.0
370
     5
100
AcDbHatch
 10
0.0
 20
0.0
 30
0.0000000000081514
210
0.0
220
-0.0000000000000009
230
1.0
  2
SOLID
 70
     1
 71
     0
 91
        1
 92
        7
 72
     0
 73
     1
 93
        4
 10
5371.43032582784
 20
-9154.373813221296
 10
5410.430308745292
 20
-9154.373813221296
 10
5410.430308745292
 20
-9159.373813221296
 10
5366.430325827838
 20
-9159.373813221296
 97
        0
 75
     0
 76
     1
 47
0.2856015914270995
 98
        1
 10
5388.537190718314
 20
-9157.58017111773
1001
ACAD
1010
0.0
1020
0.0
1030
0.0
  0
3DFACE
  5
1B7
330
2
100
AcDbEntity
  8
0
  6
Continuous
 62
     7
370
     5
100
AcDbFace
 10
5371.43032582784
 20
-9154.373813221296
 30
0.0000000000000207
 11
5410.430308745292
 21
-9154.373813221296
 31
0.0000000000000207
 12
5410.430308745292
 22
-9168.763875971292
 32
0.0000000000000079
 13
5357.040263077841
 23
-9168.763875971292
 33
0.0000000000000079
  0
3DFACE
  5
1B8
330
2
100
AcDbEntity
  8
0
  6
Continuous
 62
     7
370
     5
100
AcDbFace
 10
5357.040263077841
 20
-9115.373830303841
 30
0.0000000000000553
 11
5357.040263077841
 21
-9168.763875971292
 31
0.0000000000000079
 12
5410.430308745292
 22
-9168.763875971292
 32
0.0000000000000079
 13
5410.430308745292
 23
-9115.373830303841
 33
0.0000000000000553
  0
3DFACE
  5
1B9
330
2
100
AcDbEntity
  8
0
  6
Continuous
 62
     7
370
     5
100
AcDbFace
 10
5371.43032582784
 20
-9115.373830303841
 30
0.0000000000000553
 11
5410.430308745292
 21
-9115.373830303841
 31
0.0000000000000553
 12
5410.430308745292
 22
-9154.373813221296
 32
0.0000000000000207
 13
5371.43032582784
 23
-9154.373813221296
 33
0.0000000000000207
  0
3DFACE
  5
1BA
330
2
100
AcDbEntity
  8
0
  6
Continuous
 62
   210
370
     5
100
AcDbFace
 10
5357.040263077841
 20
-9168.627471467679
 30
0.000000000000008
 11
5371.43032582784
 21
-9154.373813221296
 31
0.0000000000000207
 12
5410.430308745292
 22
-9154.373813221296
 32
0.0000000000000207
 13
5410.430308745292
 23
-9168.627471467679
 33
0.000000000000008
  0
HATCH
  5
1BB
330
2
100
AcDbEntity
  8
0
 48
4.0
370
     5
100
AcDbHatch
 10
0.0
 20
0.0
 30
0.0000000000081514
210
0.0
220
-0.0000000000000009
230
1.0
  2
SOLID
 70
     1
 71
     0
 91
        1
 92
        7
 72
     0
 73
     1
 93
        4
 10
5371.43032582784
 20
-9115.373830303841
 10
5410.430308745292
 20
-9115.373830303841
 10
5410.430308745292
 20
-9154.373813221296
 10
5371.43032582784
 20
-9154.373813221296
 97
        0
 75
     0
 76
     1
 47
0.2856015914270995
 98
        1
 10
5390.823112367645
 20
-9147.012919561957
1001
ACAD
1010
0.0
1020
0.0
1030
0.0
  0
3DFACE
  5
1BC
330
2
100
AcDbEntity
  8
0
  6
Continuous
 62
   210
370
     5
100
AcDbFace
 10
5371.43032582784
 20
-9154.373813221296
 30
0.0000000000000207
 11
5371.43032582784
 21
-9115.373830303841
 31
0.0000000000000553
 12
5410.430308745292
 22
-9115.373830303841
 32
0.0000000000000553
 13
5410.430308745292
 23
-9154.373813221296
 33
0.0000000000000207
  0
3DFACE
  5
1BD
330
2
100
AcDbEntity
  8
0
  6
Continuous
 62
   210
370
     5
100
AcDbFace
 10
5371.43032582784
 20
-9115.373830303841
 30
0.0000000000000553
 11
5357.040263077841
 21
-9115.373830303841
 31
0.0000000000000553
 12
5410.430308745292
 22
-9115.373830303841
 32
0.0000000000000553
 13
5410.430308745292
 23
-9115.373830303841
 33
0.0000000000000553
  0
3DFACE
  5
1BE
330
2
100
AcDbEntity
  8
0
  6
Continuous
 62
   210
370
     5
100
AcDbFace
 10
5357.040263077841
 20
-9115.373830303841
 30
0.0000000000000553
 11
5357.040263077841
 21
-9168.627471467679
 31
0.000000000000008
 12
5410.430308745292
 22
-9168.627471467679
 32
0.000000000000008
 13
5410.430308745292
 23
-9115.373830303841
 33
0.0000000000000553
  0
HATCH
  5
1BF
330
2
100
AcDbEntity
  8
0
 48
4.0
370
     5
100
AcDbHatch
 10
0.0
 20
0.0
 30
0.0000000000081514
210
0.0
220
-0.0000000000000009
230
1.0
  2
SOLID
 70
     1
 71
     0
 91
        1
 92
        7
 72
     0
 73
     1
 93
        4
 10
5366.430325827838
 20
-9115.373830303841
 10
5371.43032582784
 20
-9115.373830303841
 10
5371.43032582784
 20
-9154.373813221296
 10
5366.430325827838
 20
-9159.326417839499
 97
        0
 75
     0
 76
     1
 47
0.2856015914270995
 98
        1
 10
5367.678001037566
 20
-9145.870500960112
1001
ACAD
1010
0.0
1020
0.0
1030
0.0
  0
HATCH
  5
1C0
330
2
100
AcDbEntity
  8
0
 48
4.0
370
     5
100
AcDbHatch
 10
0.0
 20
0.0
 30
0.0000000000081514
210
0.0
220
-0.0000000000000009
230
1.0
  2
SOLID
 70
     1
 71
     0
 91
        1
 92
        7
 72
     0
 73
     1
 93
        4
 10
5357.040263077841
 20
-9115.373830303841
 10
5366.430325827838
 20
-9115.373830303841
 10
5366.430325827838
 20
-9159.326417839499
 10
5357.040263077841
 20
-9168.627471467679
 97
        0
 75
     0
 76
     1
 47
0.2856015914270995
 98
        1
 10
5362.534642964209
 20
-9147.298517123516
1001
ACAD
1010
0.0
1020
0.0
1030
0.0
  0
3DFACE
  5
1C1
330
2
100
AcDbEntity
  8
0
  6
Continuous
 62
   210
370
     5
100
AcDbFace
 10
5371.43032582784
 20
-9115.373830303841
 30
0.0000000000000553
 11
5371.43032582784
 21
-9154.373813221296
 31
0.0000000000000207
 12
5357.040263077841
 22
-9168.627471467679
 32
0.000000000000008
 13
5357.040263077841
 23
-9115.373830303841
 33
0.0000000000000553
  0
3DFACE
  5
1C2
330
2
100
AcDbEntity
  8
0
  6
Continuous
 62
   210
370
     5
100
AcDbFace
 10
5410.430308745292
 20
-9115.373830303841
 30
0.0000000000000553
 11
5410.430308745292
 21
-9168.627471467679
 31
0.000000000000008
 12
5410.430308745292
 22
-9154.373813221296
 32
0.0000000000000207
 13
5410.430308745292
 23
-9115.373830303841
 33
0.0000000000000553
  0
3DFACE
  5
1C3
330
2
100
AcDbEntity
  8
0
  6
Continuous
 62
     7
370
     5
100
AcDbFace
 10
5665.427632446885
 20
-9115.373830303841
 30
0.0000000000000553
 11
5679.817695196883
 21
-9115.373830303841
 31
0.0000000000000553
 12
5679.817695196883
 22
-9168.763875971292
 32
0.0000000000000079
 13
5665.427632446885
 23
-9154.373813221296
 33
0.0000000000000207
  0
3DFACE
  5
1C4
330
2
100
AcDbEntity
  8
0
  6
Continuous
 62
     7
370
     5
100
AcDbFace
 10
5626.427649529436
 20
-9115.373830303841
 30
0.0000000000000553
 11
5626.427649529436
 21
-9115.373830303841
 31
0.0000000000000553
 12
5679.817695196883
 22
-9115.373830303841
 32
0.0000000000000553
 13
5665.427632446885
 23
-9115.373830303841
 33
0.0000000000000553
  0
3DFACE
  5
1C5
330
2
100
AcDbEntity
  8
0
  6
Continuous
 62
     7
370
     5
100
AcDbFace
 10
5626.427649529436
 20
-9154.373813221296
 30
0.0000000000000207
 11
5626.427649529436
 21
-9168.763875971292
 31
0.0000000000000079
 12
5626.427649529436
 22
-9115.373830303841
 32
0.0000000000000553
 13
5626.427649529436
 23
-9115.373830303841
 33
0.0000000000000553
  0
HATCH
  5
1C6
330
2
100
AcDbEntity
  8
0
 48
4.0
370
     5
100
AcDbHatch
 10
0.0
 20
0.0
 30
0.0000000000081514
210
0.0
220
-0.0000000000000009
230
1.0
  2
SOLID
 70
     1
 71
     0
 91
        1
 92
        7
 72
     0
 73
     1
 93
        4
 10
5669.388979496
 20
-9159.373813221296
 10
5670.427632446886
 20
-9159.373813221296
 10
5679.681290693272
 20
-9168.627471467679
 10
5669.388979496
 20
-9168.627471467679
 97
        0
 75
     0
 76
     1
 47
0.2555030422937901
 98
        1
 10
5673.14151470601
 20
-9164.257545321419
1001
ACAD
1010
0.0
1020
0.0
1030
0.0
  0
HATCH
  5
1C7
330
2
100
AcDbEntity
  8
0
 48
4.0
370
     5
100
AcDbHatch
 10
0.0
 20
0.0
 30
0.0
210
0.0
220
0.0
230
1.0
  2
SOLID
 70
     1
 71
     0
 91
        1
 92
        7
 72
     0
 73
     1
 93
        3
 10
5669.388979496
 20
-9158.335160270414
 10
5670.427632446885
 20
-9159.373813221296
 10
5669.388979496
 20
-9159.373813221296
 97
        0
 75
     0
 76
     1
 47
0.030293611473338
 98
        1
 10
5669.896716834876
 20
-9159.010457760988
1001
ACAD
1010
0.0
1020
0.0
1030
0.0
  0
3DFACE
  5
1C8
330
2
100
AcDbEntity
  8
0
  6
Continuous
 62
     7
370
     5
100
AcDbFace
 10
5665.427632446885
 20
-9154.373813221296
 30
0.0000000000000207
 11
5679.817695196883
 21
-9168.763875971292
 31
0.0000000000000079
 12
5626.427649529436
 22
-9168.763875971292
 32
0.0000000000000079
 13
5626.427649529436
 23
-9154.373813221296
 33
0.0000000000000207
  0
3DFACE
  5
1C9
330
2
100
AcDbEntity
  8
0
  6
Continuous
 62
     7
370
     5
100
AcDbFace
 10
5679.817695196883
 20
-9115.373830303841
 30
0.0000000000000553
 11
5626.427649529436
 21
-9115.373830303841
 31
0.0000000000000553
 12
5626.427649529436
 22
-9168.763875971292
 32
0.0000000000000079
 13
5679.817695196883
 23
-9168.763875971292
 33
0.0000000000000079
  0
3DFACE
  5
1CA
330
2
100
AcDbEntity
  8
0
  6
Continuous
 62
     7
370
     5
100
AcDbFace
 10
5665.427632446885
 20
-9115.373830303841
 30
0.0000000000000553
 11
5665.427632446885
 21
-9154.373813221296
 31
0.0000000000000207
 12
5626.427649529436
 22
-9154.373813221296
 32
0.0000000000000207
 13
5626.427649529436
 23
-9115.373830303841
 33
0.0000000000000553
  0
3DFACE
  5
1CB
330
2
100
AcDbEntity
  8
0
  6
Continuous
 62
   210
370
     5
100
AcDbFace
 10
5626.427649529436
 20
-9154.373813221296
 30
0.0000000000000207
 11
5665.427632446887
 21
-9154.373813221296
 31
0.0000000000000207
 12
5679.817695196883
 22
-9168.627471467679
 32
0.000000000000008
 13
5626.427649529436
 23
-9168.627471467679
 33
0.000000000000008
  0
3DFACE
  5
1CC
330
2
100
AcDbEntity
  8
0
  6
Continuous
 62
   210
370
     5
100
AcDbFace
 10
5626.427649529436
 20
-9115.373830303841
 30
0.0000000000000553
 11
5665.427632446887
 21
-9115.373830303841
 31
0.0000000000000553
 12
5665.427632446887
 22
-9154.373813221296
 32
0.0000000000000207
 13
5626.427649529436
 23
-9154.373813221296
 33
0.0000000000000207
  0
3DFACE
  5
1CD
330
2
100
AcDbEntity
  8
0
  6
Continuous
 62
   210
370
     5
100
AcDbFace
 10
5626.427649529436
 20
-9115.373830303841
 30
0.0000000000000553
 11
5679.817695196883
 21
-9115.373830303841
 31
0.0000000000000553
 12
5665.427632446887
 22
-9115.373830303841
 32
0.0000000000000553
 13
5626.427649529436
 23
-9115.373830303841
 33
0.0000000000000553
  0
3DFACE
  5
1CE
330
2
100
AcDbEntity
  8
0
  6
Continuous
 62
   210
370
     5
100
AcDbFace
 10
5626.427649529436
 20
-9168.627471467679
 30
0.000000000000008
 11
5679.817695196883
 21
-9168.627471467679
 31
0.000000000000008
 12
5679.817695196883
 22
-9115.373830303841
 32
0.0000000000000553
 13
5626.427649529436
 23
-9115.373830303841
 33
0.0000000000000553
  0
HATCH
  5
1CF
330
2
100
AcDbEntity
  8
0
 48
4.0
370
     5
100
AcDbHatch
 10
0.0
 20
0.0
 30
0.0000000000081514
210
0.0
220
-0.0000000000000009
230
1.0
  2
SOLID
 70
     1
 71
     0
 91
        1
 92
        7
 72
     0
 73
     1
 93
        4
 10
5670.427632446886
 20
-9115.373830303841
 10
5679.817695196883
 20
-9115.373830303841
 10
5679.817695196883
 20
-9168.627471467679
 10
5670.427632446885
 20
-9159.326417839499
 97
        0
 75
     0
 76
     1
 47
0.7371147783472081
 98
        1
 10
5674.370816687711
 20
-9143.947764715631
1001
ACAD
1010
0.0
1020
0.0
1030
0.0
  0
HATCH
  5
1D0
330
2
100
AcDbEntity
  8
0
 48
4.0
370
     5
100
AcDbHatch
 10
0.0
 20
0.0
 30
0.0000000000081514
210
0.0
220
-0.0000000000000009
230
1.0
  2
SOLID
 70
     1
 71
     0
 91
        1
 92
        7
 72
     0
 73
     1
 93
        4
 10
5665.427632446887
 20
-9115.373830303841
 10
5669.388979496
 20
-9115.373830303841
 10
5669.388979496
 20
-9158.297610359246
 10
5665.427632446887
 20
-9154.373813221296
 97
        0
 75
     0
 76
     1
 47
0.2555030422937901
 98
        1
 10
5667.262023244409
 20
-9150.460364551742
1001
ACAD
1010
0.0
1020
0.0
1030
0.0
  0
HATCH
  5
1D1
330
2
100
AcDbEntity
  8
0
 48
4.0
370
     5
100
AcDbHatch
 10
0.0
 20
0.0
 30
0.0000000000081514
210
0.0
220
-0.0000000000000009
230
1.0
  2
SOLID
 70
     1
 71
     0
 91
        1
 92
        7
 72
     0
 73
     1
 93
        4
 10
5669.388979496
 20
-9115.373830303841
 10
5670.427632446886
 20
-9115.373830303841
 10
5670.427632446885
 20
-9159.326417839499
 10
5669.388979496
 20
-9158.297610359246
 97
        0
 75
     0
 76
     1
 47
0.0885640510249868
 98
        1
 10
5669.862795746048
 20
-9124.31264880228
1001
ACAD
1010
0.0
1020
0.0
1030
0.0
  0
HATCH
  5
1D2
330
2
100
AcDbEntity
  8
0
 48
4.0
370
     5
100
AcDbHatch
 10
0.0
 20
0.0
 30
0.0000000000081514
210
0.0
220
-0.0000000000000009
230
1.0
  2
SOLID
 70
     1
 71
     0
 91
        1
 92
        7
 72
     0
 73
     1
 93
        4
 10
5669.388979496
 20
-9110.37383030384
 10
5670.427632446886
 20
-9110.37383030384
 10
5670.427632446886
 20
-9115.373830303841
 10
5669.388979496
 20
-9115.373830303841
 97
        0
 75
     0
 76
     1
 47
0.0885640510249868
 98
        1
 10
5670.305841110107
 20
-9112.710758264547
1001
ACAD
1010
0.0
1020
0.0
1030
0.0
  0
3DFACE
  5
1D3
330
2
100
AcDbEntity
  8
0
  6
Continuous
 62
   210
370
     5
100
AcDbFace
 10
5679.817695196883
 20
-9168.627471467679
 30
0.000000000000008
 11
5665.427632446887
 21
-9154.373813221296
 31
0.0000000000000207
 12
5665.427632446887
 22
-9115.373830303841
 32
0.0000000000000553
 13
5679.817695196883
 23
-9115.373830303841
 33
0.0000000000000553
  0
3DFACE
  5
1D4
330
2
100
AcDbEntity
  8
0
  6
Continuous
 62
   210
370
     5
100
AcDbFace
 10
5626.427649529436
 20
-9154.373813221296
 30
0.0000000000000207
 11
5626.427649529436
 21
-9168.627471467679
 31
0.000000000000008
 12
5626.427649529436
 22
-9115.373830303841
 32
0.0000000000000553
 13
5626.427649529436
 23
-9115.373830303841
 33
0.0000000000000553
  0
LINE
  5
1D5
330
2
100
AcDbEntity
  8
0
  6
Continuous
 62
   210
370
     5
100
AcDbLine
 10
5670.427632446885
 20
-9159.373813221296
 30
0.0000000000000162
 11
5670.427632446886
 21
-9110.37383030384
 31
0.0000000000000597
  0
LINE
  5
1D6
330
2
100
AcDbEntity
  8
0
  6
Continuous
 62
     7
370
     5
100
AcDbLine
 10
6028.55920544308
 20
-8167.914271623356
 30
0.0000000000009173
 11
5658.558979137342
 21
-8167.914271623358
 31
0.0000000000009501
  0
LINE
  5
1D7
330
2
100
AcDbEntity
  8
0
  6
Continuous
 62
     7
370
     5
100
AcDbLine
 10
5786.05897913734
 20
-8107.914271623355
 30
0.0000000000009501
 11
6088.558979288404
 21
-8107.914271623355
 31
0.0000000000009501
  0
LINE
  5
1D8
330
2
100
AcDbEntity
  8
0
  6
Continuous
 62
     7
370
     5
100
AcDbLine
 10
5718.55897913734
 20
-8107.914271623355
 30
0.0000000000009501
 11
5786.05897913734
 21
-8107.914271623355
 31
0.0000000000009501
  0
LINE
  5
1D9
330
2
100
AcDbEntity
  8
0
  6
Continuous
 62
     7
370
     5
100
AcDbLine
 10
5718.55897913734
 20
-8067.914271623347
 30
0.0000000000009856
 11
5718.55897913734
 21
-8107.914271623355
 31
0.0000000000009501
  0
LINE
  5
1DA
330
2
100
AcDbEntity
  8
0
  6
Continuous
 62
     7
370
     5
100
AcDbLine
 10
5658.558979137342
 20
-8127.914271623351
 30
0.0000000000009501
 11
5373.558979137351
 21
-8127.914271623358
 31
0.0000000000009491
  0
LINE
  5
1DB
330
2
100
AcDbEntity
  8
0
  6
Continuous
 62
     7
370
     5
100
AcDbLine
 10
5383.528979137359
 20
-8067.91427162336
 30
0.0000000000009856
 11
5718.55897913734
 21
-8067.914271623347
 31
0.0000000000009856
  0
LINE
  5
1DC
330
2
100
AcDbEntity
  8
0
  6
Continuous
 62
     7
370
     5
100
AcDbLine
 10
5318.558979137355
 20
-8067.914271623363
 30
0.0000000000009856
 11
5383.528979137359
 21
-8067.91427162336
 31
0.0000000000009856
  0
LINE
  5
1DD
330
2
100
AcDbEntity
  8
0
  6
Continuous
 62
     7
370
     5
100
AcDbLine
 10
5318.558979137353
 20
-8107.914271623352
 30
0.0000000000009501
 11
5318.558979137355
 21
-8067.914271623363
 31
0.0000000000009856
  0
LINE
  5
1DE
330
2
100
AcDbEntity
  8
0
  6
Continuous
 62
     7
370
     5
100
AcDbLine
 10
6028.560781617398
 20
-8586.080918174392
 30
0.0000000000005254
 11
6028.560398617232
 21
-8484.469127669342
 31
0.0000000000006157
  0
LINE
  5
1DF
330
2
100
AcDbEntity
  8
0
  6
Continuous
 62
     7
370
     5
100
AcDbLine
 10
6028.560398617232
 20
-8484.469127669342
 30
0.0000000000006157
 11
6028.55920544308
 21
-8167.914271623356
 31
0.0000000000008968
  0
LINE
  5
1E0
330
2
100
AcDbEntity
  8
0
  6
Continuous
 62
     7
370
     5
100
AcDbLine
 10
6088.558979288404
 20
-8107.914271623355
 30
0.0000000000009501
 11
6088.560566067375
 21
-8528.89438469492
 31
0.0000000000005762
  0
LINE
  5
1E1
330
2
100
AcDbEntity
  8
0
  6
Continuous
 62
     7
370
     5
100
AcDbLine
 10
6282.428979495999
 20
-8586.080918174392
 30
0.0000000000005416
 11
6235.430547561037
 21
-8586.080918174396
 31
0.0000000000005416
  0
LINE
  5
1E2
102
{ACAD_REACTORS
330
2B2
102
}
330
2
100
AcDbEntity
  8
0
  6
Continuous
 62
     7
370
     5
100
AcDbLine
 10
6235.430547561037
 20
-8586.080918174392
 30
0.0000000000005416
 11
6235.430547561032
 21
-8528.89438469492
 31
0.0000000000005762
  0
LINE
  5
1E3
330
2
100
AcDbEntity
  8
0
  6
Continuous
 62
     7
370
     5
100
AcDbLine
 10
6235.430547561032
 20
-8528.89438469492
 30
0.0000000000005762
 11
6342.428979495998
 21
-8528.894384694917
 31
0.0000000000005762
  0
LINE
  5
1E4
330
2
100
AcDbEntity
  8
0
  6
Continuous
 62
     7
370
     5
100
AcDbLine
 10
6135.430547561036
 20
-8586.080918174392
 30
0.0000000000005425
 11
6028.560781617398
 21
-8586.080918174392
 31
0.0000000000005333
  0
LINE
  5
1E5
330
2
100
AcDbEntity
  8
0
  6
Continuous
 62
     7
370
     5
100
AcDbLine
 10
6088.560566067375
 20
-8528.89438469492
 30
0.0000000000005762
 11
6135.430547561036
 21
-8528.89438469492
 31
0.0000000000005762
  0
LINE
  5
1E6
330
2
100
AcDbEntity
  8
0
  6
Continuous
 62
     7
370
     5
100
AcDbLine
 10
6282.428979496001
 20
-9499.834272174906
 30
-0.0000000000002862
 11
6282.428979495999
 21
-9271.444272174903
 31
-0.0000000000000833
  0
LINE
  5
1E7
330
2
100
AcDbEntity
  8
0
  6
Continuous
 62
     7
370
     5
100
AcDbLine
 10
6342.428979495998
 20
-9271.444272174903
 30
-0.0000000000000833
 11
6342.428979495998
 21
-9559.834272174903
 31
-0.0000000000003395
  0
LINE
  5
1E8
330
2
100
AcDbEntity
  8
0
  6
Continuous
 62
     7
370
     5
100
AcDbLine
 10
6282.428979495999
 20
-9271.444272174903
 30
-0.0000000000000833
 11
6282.428979495999
 21
-8907.374272174932
 31
0.00000000000024
  0
LINE
  5
1E9
330
2
100
AcDbEntity
  8
0
  6
Continuous
 62
     7
370
     5
100
AcDbLine
 10
6342.428979495998
 20
-8907.394271623335
 30
0.00000000000024
 11
6342.428979495998
 21
-9271.444272174903
 31
-0.0000000000000833
  0
LINE
  5
1EA
330
2
100
AcDbEntity
  8
0
  6
Continuous
 62
     7
370
     5
100
AcDbLine
 10
6282.428979495999
 20
-8907.374272174932
 30
0.00000000000024
 11
6282.428979495999
 21
-8586.080918174392
 31
0.0000000000005254
  0
LINE
  5
1EB
330
2
100
AcDbEntity
  8
0
  6
Continuous
 62
     7
370
     5
100
AcDbLine
 10
6342.428979495998
 20
-8528.894384694917
 30
0.0000000000005762
 11
6342.428979495998
 21
-8907.394271623335
 31
0.00000000000024
  0
LINE
  5
1EC
330
2
100
AcDbEntity
  8
0
  6
Continuous
 62
     7
370
     5
100
AcDbLine
 10
5729.388979496001
 20
-9499.834272174906
 30
-0.0000000000003048
 11
5780.888979495999
 21
-9499.834272174906
 31
-0.0000000000003048
  0
LINE
  5
1ED
330
2
100
AcDbEntity
  8
0
  6
Continuous
 62
     7
370
     5
100
AcDbLine
 10
5780.888979495999
 20
-9499.834272174906
 30
-0.0000000000002862
 11
5780.888979495999
 21
-9559.834272174908
 31
-0.0000000000003395
  0
LINE
  5
1EE
330
2
100
AcDbEntity
  8
0
  6
Continuous
 62
     7
370
     5
100
AcDbLine
 10
5780.888979495999
 20
-9559.834272174908
 30
-0.0000000000003395
 11
5669.388979496
 21
-9559.834272174908
 31
-0.0000000000003395
  0
LINE
  5
1EF
330
2
100
AcDbEntity
  8
0
  6
Continuous
 62
     7
370
     5
100
AcDbLine
 10
6230.888979496
 20
-9499.834272174906
 30
-0.0000000000003048
 11
6282.428979496001
 21
-9499.834272174906
 31
-0.0000000000003048
  0
LINE
  5
1F0
330
2
100
AcDbEntity
  8
0
  6
Continuous
 62
     7
370
     5
100
AcDbLine
 10
6342.428979495998
 20
-9559.834272174903
 30
-0.0000000000003395
 11
6230.888979496
 21
-9559.834272174903
 31
-0.0000000000003395
  0
LINE
  5
1F1
330
2
100
AcDbEntity
  8
0
  6
Continuous
 62
     7
370
     5
100
AcDbLine
 10
6230.888979496
 20
-9559.834272174903
 30
-0.0000000000003395
 11
6230.888979496
 21
-9499.834272174906
 31
-0.0000000000002862
  0
LINE
  5
1F2
330
2
100
AcDbEntity
  8
0
  6
Continuous
 62
     7
370
     5
100
AcDbLine
 10
5729.388979496
 20
-8990.374272174937
 30
0.0000000000001663
 11
5729.388979496
 21
-9320.394272174906
 31
-0.0000000000001268
  0
LINE
  5
1F3
330
2
100
AcDbEntity
  8
0
  6
Continuous
 62
     7
370
     5
100
AcDbLine
 10
5669.388979496
 20
-9320.394272174906
 30
-0.0000000000001268
 11
5669.388979496
 21
-9050.374272174932
 31
0.000000000000113
  0
LINE
  5
1F4
330
2
100
AcDbEntity
  8
0
  6
Continuous
 62
     7
370
     5
100
AcDbLine
 10
5729.388979496
 20
-8990.374272174937
 30
0.0000000000001663
 11
5568.428979137363
 21
-8990.374272174937
 31
0.0000000000001477
  0
LINE
  5
1F5
330
2
100
AcDbEntity
  8
0
  6
Continuous
 62
     7
370
     5
100
AcDbLine
 10
5729.388979496
 20
-9320.394272174906
 30
-0.0000000000001268
 11
5729.388979496001
 21
-9499.834272174906
 31
-0.0000000000002862
  0
LINE
  5
1F6
330
2
100
AcDbEntity
  8
0
  6
Continuous
 62
     7
370
     5
100
AcDbLine
 10
5669.388979496002
 20
-9559.834272174908
 30
-0.0000000000003395
 11
5669.388979496
 21
-9320.394272174906
 31
-0.0000000000001268
  0
HATCH
  5
1F7
330
2
100
AcDbEntity
  8
0
 48
4.0
370
     5
100
AcDbHatch
 10
0.0
 20
0.0
 30
0.0
210
0.0
220
0.0
230
1.0
  2
SOLID
 70
     1
 71
     1
 91
        1
 92
        7
 72
     0
 73
     1
 93
       10
 10
5468.428979137363
 20
-9050.374272174932
 10
5468.428979137364
 20
-8990.374272174937
 10
5295.928979137357
 20
-8990.374272174937
 10
5008.428979137359
 20
-8990.374272174937
 10
5008.428979137358
 20
-8917.874272174932
 10
5008.428979137355
 20
-8667.874272174932
 10
4948.428979137354
 20
-8667.874272174932
 10
4948.428979137355
 20
-8917.874272174932
 10
4948.428979137357
 20
-9050.374272174932
 10
5295.928979137357
 20
-9050.374272174932
 97
       10
330
200
330
201
330
1FF
330
202
330
1F8
330
209
330
20A
330
20B
330
1F9
330
203
 75
     0
 76
     1
 47
1.044271318912175
 98
        1
 10
5308.471645431906
 20
-9025.449775469946
1001
ACAD
1010
0.0
1020
0.0
1030
0.0
  0
LINE
  5
1F8
102
{ACAD_REACTORS
330
1F7
102
}
330
2
100
AcDbEntity
  8
0
  6
Continuous
 62
     7
370
     5
100
AcDbLine
 10
5008.428979137358
 20
-8990.374272174937
 30
0.0000000000001477
 11
5295.928979137357
 21
-8990.374272174937
 31
0.0000000000001477
  0
LINE
  5
1F9
102
{ACAD_REACTORS
330
1F7
102
}
330
2
100
AcDbEntity
  8
0
  6
Continuous
 62
     7
370
     5
100
AcDbLine
 10
5295.928979137357
 20
-9050.374272174932
 30
0.000000000000113
 11
4948.428979137357
 21
-9050.374272174932
 31
0.000000000000113
  0
LINE
  5
1FA
330
2
100
AcDbEntity
  8
0
  6
Continuous
 62
     7
370
     5
100
AcDbLine
 10
5008.428979137352
 20
-8167.914271623351
 30
0.0000000000008968
 11
5008.428979137352
 21
-8237.874271623352
 31
0.0000000000008347
  0
LINE
  5
1FB
330
2
100
AcDbEntity
  8
0
  6
Continuous
 62
     7
370
     5
100
AcDbLine
 10
4948.428979137352
 20
-8237.874271623352
 30
0.0000000000008347
 11
4948.428979137352
 21
-8107.914271623352
 31
0.0000000000009501
  0
LINE
  5
1FC
330
2
100
AcDbEntity
  8
0
  6
Continuous
 62
     7
370
     5
100
AcDbLine
 10
5008.428979137356
 20
-8237.874271623352
 30
0.0000000000008347
 11
5008.428979137354
 21
-8487.874272174932
 31
0.0000000000006126
  0
LINE
  5
1FD
102
{ACAD_REACTORS
330
2B1
102
}
330
2
100
AcDbEntity
  8
0
  6
Continuous
 62
     7
370
     5
100
AcDbLine
 10
5008.428979137354
 20
-8487.874272174932
 30
0.0000000000006126
 11
4948.428979137354
 21
-8487.874272174932
 31
0.0000000000006126
  0
LINE
  5
1FE
330
2
100
AcDbEntity
  8
0
  6
Continuous
 62
     7
370
     5
100
AcDbLine
 10
4948.428979137354
 20
-8487.874272174932
 30
0.0000000000006126
 11
4948.428979137355
 21
-8237.874271623352
 31
0.0000000000008347
  0
LINE
  5
1FF
102
{ACAD_REACTORS
330
1F7
102
}
330
2
100
AcDbEntity
  8
0
  6
Continuous
 62
     7
370
     5
100
AcDbLine
 10
5008.428979137356
 20
-8667.874272174932
 30
0.0000000000004528
 11
5008.428979137358
 21
-8917.874272174932
 31
0.0000000000002307
  0
LINE
  5
200
102
{ACAD_REACTORS
330
1F7
102
}
330
2
100
AcDbEntity
  8
0
  6
Continuous
 62
     7
370
     5
100
AcDbLine
 10
4948.428979137355
 20
-8917.874272174932
 30
0.0000000000002307
 11
4948.428979137355
 21
-8667.874272174932
 31
0.0000000000004528
  0
LINE
  5
201
102
{ACAD_REACTORS
330
1F7
330
2B1
102
}
330
2
100
AcDbEntity
  8
0
  6
Continuous
 62
     7
370
     5
100
AcDbLine
 10
4948.428979137355
 20
-8667.874272174932
 30
0.0000000000004528
 11
5008.428979137356
 21
-8667.874272174932
 31
0.0000000000004528
  0
LINE
  5
202
102
{ACAD_REACTORS
330
1F7
102
}
330
2
100
AcDbEntity
  8
0
  6
Continuous
 62
     7
370
     5
100
AcDbLine
 10
5008.428979137358
 20
-8917.874272174932
 30
0.0000000000002307
 11
5008.428979137358
 21
-8990.374272174937
 31
0.0000000000001663
  0
LINE
  5
203
102
{ACAD_REACTORS
330
1F7
102
}
330
2
100
AcDbEntity
  8
0
  6
Continuous
 62
     7
370
     5
100
AcDbLine
 10
4948.428979137357
 20
-9050.374272174932
 30
0.000000000000113
 11
4948.428979137357
 21
-8917.874272174932
 31
0.0000000000002307
  0
LINE
  5
204
102
{ACAD_REACTORS
330
2B0
102
}
330
2
100
AcDbEntity
  8
0
  6
Continuous
 62
     7
370
     5
100
AcDbLine
 10
5250.928979137352
 20
-8167.914271623351
 30
0.0000000000008968
 11
5250.928979137352
 21
-8107.914271623355
 31
0.0000000000009501
  0
LINE
  5
205
330
2
100
AcDbEntity
  8
0
  6
Continuous
 62
     7
370
     5
100
AcDbLine
 10
5250.928979137352
 20
-8107.914271623355
 30
0.0000000000009501
 11
5318.558979137353
 21
-8107.914271623355
 31
0.0000000000009501
  0
LINE
  5
206
330
2
100
AcDbEntity
  8
0
  6
Continuous
 62
     7
370
     5
100
AcDbLine
 10
5070.928979137352
 20
-8167.914271623351
 30
0.0000000000009155
 11
5008.428979137352
 21
-8167.914271623351
 31
0.0000000000009155
  0
LINE
  5
207
330
2
100
AcDbEntity
  8
0
  6
Continuous
 62
     7
370
     5
100
AcDbLine
 10
4948.428979137352
 20
-8107.914271623355
 30
0.0000000000009501
 11
5070.928979137352
 21
-8107.914271623355
 31
0.0000000000009501
  0
LINE
  5
208
102
{ACAD_REACTORS
330
2B0
102
}
330
2
100
AcDbEntity
  8
0
  6
Continuous
 62
     7
370
     5
100
AcDbLine
 10
5070.928979137352
 20
-8107.914271623355
 30
0.0000000000009501
 11
5070.928979137352
 21
-8167.914271623351
 31
0.0000000000008968
  0
LINE
  5
209
102
{ACAD_REACTORS
330
1F7
102
}
330
2
100
AcDbEntity
  8
0
  6
Continuous
 62
     7
370
     5
100
AcDbLine
 10
5468.428979137363
 20
-8990.374272174937
 30
0.0000000000001477
 11
5295.928979137357
 21
-8990.374272174937
 31
0.0000000000001477
  0
LINE
  5
20A
102
{ACAD_REACTORS
330
1F7
102
}
330
2
100
AcDbEntity
  8
0
  6
Continuous
 62
     7
370
     5
100
AcDbLine
 10
5468.428979137363
 20
-8990.374272174937
 30
0.0000000000001663
 11
5468.428979137363
 21
-9050.374272174932
 31
0.000000000000113
  0
LINE
  5
20B
102
{ACAD_REACTORS
330
1F7
102
}
330
2
100
AcDbEntity
  8
0
  6
Continuous
 62
     7
370
     5
100
AcDbLine
 10
5468.428979137363
 20
-9050.374272174932
 30
0.000000000000113
 11
5295.928979137357
 21
-9050.374272174932
 31
0.000000000000113
  0
LINE
  5
20C
330
2
100
AcDbEntity
  8
0
  6
Continuous
 62
     7
370
     5
100
AcDbLine
 10
5669.388979496
 20
-9050.374272174932
 30
0.000000000000113
 11
5568.428979137363
 21
-9050.374272174932
 31
0.000000000000113
  0
LINE
  5
20D
330
2
100
AcDbEntity
  8
0
  6
Continuous
 62
     7
370
     5
100
AcDbLine
 10
5568.428979137363
 20
-9050.374272174932
 30
0.000000000000113
 11
5568.428979137363
 21
-8990.374272174937
 31
0.0000000000001663
  0
LINE
  5
20E
330
2
100
AcDbEntity
  8
0
  6
Continuous
 62
     7
370
     5
100
AcDbLine
 10
5373.558979137351
 20
-8167.914271623351
 30
0.0000000000008968
 11
5250.928979137352
 21
-8167.914271623351
 31
0.0000000000009155
  0
LINE
  5
20F
102
{ACAD_REACTORS
330
2B2
102
}
330
2
100
AcDbEntity
  8
0
  6
Continuous
 62
    40
370
     5
390
9E
100
AcDbLine
 10
6235.430547561037
 20
-8586.080918174396
 30
0.0000000000005416
 11
6135.430547561036
 21
-8586.080918174396
 31
0.0000000000005416
  0
LINE
  5
210
330
2
100
AcDbEntity
  8
0
  6
Continuous
 62
    40
370
     5
100
AcDbLine
 10
5568.428979137363
 20
-8990.374272174937
 30
0.0000000000001477
 11
5468.428979137363
 21
-8990.374272174937
 31
0.0000000000001477
  0
LINE
  5
211
102
{ACAD_REACTORS
330
2B0
102
}
330
2
100
AcDbEntity
  8
0
  6
Continuous
 62
    40
370
     5
100
AcDbLine
 10
5250.928979137352
 20
-8107.914271623355
 30
0.0000000000009501
 11
5070.928979137352
 21
-8107.914271623355
 31
0.0000000000009501
  0
LINE
  5
212
102
{ACAD_REACTORS
330
2B0
102
}
330
2
100
AcDbEntity
  8
0
  6
Continuous
 62
    40
370
     5
100
AcDbLine
 10
5250.928979137352
 20
-8167.914271623351
 30
0.0000000000009155
 11
5070.928979137352
 21
-8167.914271623351
 31
0.0000000000009155
  0
LINE
  5
213
102
{ACAD_REACTORS
330
2B2
102
}
330
2
100
AcDbEntity
  8
0
  6
Continuous
 62
     7
370
     5
100
AcDbLine
 10
6135.430547561036
 20
-8586.080918174392
 30
0.0000000000005416
 11
6135.430547561036
 21
-8528.89438469492
 31
0.0000000000005762
  0
LINE
  5
214
330
2
100
AcDbEntity
  8
0
  6
Continuous
 62
     7
370
     5
100
AcDbLine
 10
5658.558979137342
 20
-8167.914271623358
 30
0.0000000000009501
 11
5658.558979137339
 21
-8127.914271623351
 31
0.0000000000009501
  0
LINE
  5
215
330
2
100
AcDbEntity
  8
0
  6
Continuous
 62
     7
370
     5
100
AcDbLine
 10
5373.558979137351
 20
-8127.914271623358
 30
0.0000000000008968
 11
5373.558979137353
 21
-8167.914271623351
 31
0.0000000000008968
  0
LINE
  5
216
102
{ACAD_REACTORS
330
2B1
102
}
330
2
100
AcDbEntity
  8
0
  6
Continuous
 62
    40
370
     5
100
AcDbLine
 10
5008.428979137354
 20
-8487.874272174932
 30
0.0000000000006126
 11
5008.428979137356
 21
-8667.874272174932
 31
0.0000000000004528
  0
LINE
  5
217
102
{ACAD_REACTORS
330
2B1
102
}
330
2
100
AcDbEntity
  8
0
  6
Continuous
 62
    40
370
     5
100
AcDbLine
 10
4948.428979137354
 20
-8487.874272174932
 30
0.0000000000006126
 11
4948.428979137355
 21
-8667.874272174932
 31
0.0000000000004528
  0
HATCH
  5
218
330
2
100
AcDbEntity
  8
0
 48
4.0
370
     5
100
AcDbHatch
 10
0.0
 20
0.0
 30
0.0000000000010858
210
0.0
220
0.0
230
1.0
  2
SOLID
 70
     1
 71
     0
 91
        2
 92
        1
 93
        8
 72
     1
 10
6235.430547561032
 20
-8586.081095323192
 11
6235.430547561032
 21
-8528.89438469492
 72
     1
 10
6235.430547561032
 20
-8528.89438469492
 11
6342.428979495998
 21
-8528.89438469492
 72
     1
 10
6342.428979495998
 20
-8528.89438469492
 11
6342.428979495998
 21
-9559.834272174903
 72
     1
 10
6342.428979495998
 20
-9559.834272174903
 11
6230.888979496
 21
-9559.834272174908
 72
     1
 10
6230.888979496
 20
-9559.834272174908
 11
6230.888979496
 21
-9499.834272174906
 72
     1
 10
6230.888979496
 20
-9499.834272174906
 11
6282.428979496001
 21
-9499.834272174906
 72
     1
 10
6282.428979496001
 20
-9499.834272174906
 11
6282.42897949593
 21
-8586.080918174392
 72
     1
 10
6282.42897949593
 20
-8586.080918174392
 11
6235.430547561032
 21
-8586.081095323192
 97
        0
 92
        1
 93
       16
 72
     1
 10
6135.430547561036
 20
-8528.89438469492
 11
6135.430547561036
 21
-8586.081472248118
 72
     1
 10
6135.430547561036
 20
-8586.081472248118
 11
6028.560781621003
 21
-8586.081875066899
 72
     1
 10
6028.560781621003
 20
-8586.081875066899
 11
6028.55920544308
 21
-8167.914271623358
 72
     1
 10
6028.55920544308
 20
-8167.914271623358
 11
5658.558979137342
 21
-8167.914271623372
 72
     1
 10
5658.558979137342
 20
-8167.914271623372
 11
5658.558979137339
 21
-8127.914271623351
 72
     1
 10
5658.558979137339
 20
-8127.914271623351
 11
5373.558979137351
 21
-8127.914271623366
 72
     1
 10
5373.558979137351
 20
-8127.914271623366
 11
5373.558979137353
 21
-8167.914271623351
 72
     1
 10
5373.558979137353
 20
-8167.914271623351
 11
5250.928979137352
 21
-8167.914271623351
 72
     1
 10
5250.928979137352
 20
-8167.914271623351
 11
5250.928979137352
 21
-8107.914271623355
 72
     1
 10
5250.928979137352
 20
-8107.914271623355
 11
5318.558979137353
 21
-8107.914271623355
 72
     1
 10
5318.558979137353
 20
-8107.914271623355
 11
5318.558979137355
 21
-8067.914271623363
 72
     1
 10
5318.558979137355
 20
-8067.914271623363
 11
5718.55897913734
 21
-8067.914271623347
 72
     1
 10
5718.55897913734
 20
-8067.914271623347
 11
5718.55897913734
 21
-8107.914271623357
 72
     1
 10
5718.55897913734
 20
-8107.914271623357
 11
6088.558979283146
 21
-8107.912877001139
 72
     1
 10
6088.558979283146
 20
-8107.912877001139
 11
6088.558979283146
 21
-8528.89438469492
 72
     1
 10
6088.558979283146
 20
-8528.89438469492
 11
6135.430547561036
 21
-8528.89438469492
 97
        0
 75
     0
 76
     1
 98
        1
 10
5942.004479708868
 20
-8157.609389517071
1001
ACAD
1010
0.0
1020
0.0
1030
0.0
  0
HATCH
  5
219
330
2
100
AcDbEntity
  8
0
 48
4.0
370
     5
100
AcDbHatch
 10
0.0
 20
0.0
 30
0.0
210
0.0
220
0.0
230
1.0
  2
SOLID
 70
     1
 71
     0
 91
        1
 92
        7
 72
     0
 73
     1
 93
        8
 10
5669.388979496002
 20
-9050.374272174932
 10
5568.428979137363
 20
-9050.374272174932
 10
5568.428979137363
 20
-8990.374272174937
 10
5729.388979496
 20
-8990.374272174937
 10
5729.388979495982
 20
-9499.834272174906
 10
5780.888979495999
 20
-9499.834272174906
 10
5780.888979495999
 20
-9559.834272174908
 10
5669.388979496002
 20
-9559.834272174908
 97
        0
 75
     0
 76
     1
 47
0.591149223108057
 98
        1
 10
5689.637390409938
 20
-9436.106164684249
1001
ACAD
1010
0.0
1020
0.0
1030
0.0
  0
HATCH
  5
21A
330
2
100
AcDbEntity
  8
0
 48
4.0
370
     5
100
AcDbHatch
 10
0.0
 20
0.0
 30
0.0
210
0.0
220
0.0
230
1.0
  2
SOLID
 70
     1
 71
     0
 91
        1
 92
        7
 72
     0
 73
     1
 93
        6
 10
4948.428979137352
 20
-8107.914271623355
 10
5070.928979137352
 20
-8107.914271623355
 10
5070.928979137352
 20
-8167.914271623351
 10
5008.428979137354
 20
-8167.914271623351
 10
5008.428979137354
 20
-8487.874272174932
 10
4948.428979137354
 20
-8487.874272174932
 97
        0
 75
     0
 76
     1
 47
1.325372652675925
 98
        1
 10
4986.435138415218
 20
-8223.731237351
1001
ACAD
1010
0.0
1020
0.0
1030
0.0
  0
LINE
  5
21B
330
2
100
AcDbEntity
  8
0
  6
Continuous
 62
     8
370
     5
390
53
100
AcDbLine
 10
4738.388979137338
 20
-8225.414271623348
 30
0.0000000000018005
 11
4643.388979137347
 21
-8225.414271623348
 31
0.0000000000018005
  0
LINE
  5
21C
330
2
100
AcDbEntity
  8
0
  6
Continuous
 62
     8
370
     5
390
53
100
AcDbLine
 10
4738.388979137338
 20
-8492.917848440644
 30
0.0000000000015629
 11
4648.388979137336
 21
-8492.914272174948
 31
0.0000000000015629
  0
LINE
  5
21D
330
2
100
AcDbEntity
  8
0
370
     5
100
AcDbLine
 10
4648.388979137346
 20
-8225.414271623348
 30
0.0000000000018005
 11
4641.231307038901
 21
-8225.414271623348
 31
0.0000000000018005
  0
LINE
  5
21E
330
2
100
AcDbEntity
  8
0
370
     5
100
AcDbLine
 10
4641.183182111135
 20
-8243.916610573549
 30
0.0000000000017841
 11
4631.074685747628
 21
-8239.219457725877
 31
0.0000000000017883
  0
LINE
  5
21F
330
2
100
AcDbEntity
  8
0
370
     5
100
AcDbLine
 10
4641.163830172629
 20
-8275.981185594913
 30
0.0000000000017556
 11
4596.046609681511
 21
-8259.729257444298
 31
0.00000000000177
  0
LINE
  5
220
330
2
100
AcDbEntity
  8
0
370
     5
100
AcDbLine
 10
4641.144478234126
 20
-8308.045760616275
 30
0.0000000000017271
 11
4615.622249750484
 21
-8302.834874920252
 31
0.0000000000017318
  0
LINE
  5
221
330
2
100
AcDbEntity
  8
0
370
     5
100
AcDbLine
 10
4641.125126295621
 20
-8340.110335637636
 30
0.0000000000016987
 11
4587.870159857965
 21
-8336.288917332742
 31
0.000000000001702
  0
LINE
  5
222
330
2
100
AcDbEntity
  8
0
370
     5
100
AcDbLine
 10
4641.105774357116
 20
-8372.174910658998
 30
0.0000000000016702
 11
4614.996629878562
 21
-8373.760507290883
 31
0.0000000000016688
  0
LINE
  5
223
330
2
100
AcDbEntity
  8
0
370
     5
100
AcDbLine
 10
4641.086422418613
 20
-8404.239485680362
 30
0.0000000000016417
 11
4591.196577222876
 21
-8413.882660291605
 31
0.0000000000016331
  0
LINE
  5
224
330
2
100
AcDbEntity
  8
0
370
     5
100
AcDbLine
 10
4641.067070480107
 20
-8436.30406070172
 30
0.0000000000016132
 11
4620.231452072938
 21
-8443.323474832508
 31
0.000000000001607
  0
ARC
  5
225
330
2
100
AcDbEntity
  8
0
370
     5
100
AcDbCircle
 10
4643.987001485444
 20
-8299.007573971778
 30
0.0000000000017352
 40
73.64487763877284
100
AcDbArc
 50
92.14443332364719
 51
171.946529123791
  0
ARC
  5
226
330
2
100
AcDbEntity
  8
0
370
     5
100
AcDbCircle
 10
4642.021490191224
 20
-8421.382370104446
 30
0.0000000000016208
 40
71.96629322150265
100
AcDbArc
 50
189.625827961005
 51
275.0760977522905
  0
LINE
  5
227
330
2
100
AcDbEntity
  8
0
370
     5
100
AcDbLine
 10
4571.068427656238
 20
-8433.416084283782
 30
0.0000000000016158
 11
4571.068427656242
 21
-8288.690132760647
 31
0.0000000000017443
  0
LINE
  5
228
330
2
100
AcDbEntity
  8
0
 62
     1
370
     5
100
AcDbLine
 10
4978.428979137352
 20
-7682.045868104548
 30
0.0000000000001357
 11
6058.560566067376
 21
-7682.045868104548
 31
0.0000000000001357
  0
LINE
  5
229
330
2
100
AcDbEntity
  8
0
 62
     1
370
     5
100
AcDbLine
 10
1324.215269802706
 20
-7682.045868104548
 30
0.0000000000001357
 11
2404.346856732729
 21
-7682.045868104548
 31
0.0000000000001357
  0
LINE
  5
22A
330
2
100
AcDbEntity
  8
0
 62
     1
370
     5
100
AcDbLine
 10
6845.756468691769
 20
-8097.914271623347
 30
0.0000000000001357
 11
6845.756468691769
 21
-9529.834272174904
 31
0.0000000000001357
  0
LINE
  5
22B
330
2
100
AcDbEntity
  8
0
 62
     1
370
     5
100
AcDbLine
 10
6585.885432231437
 20
-8558.894384694914
 30
0.0000000000001357
 11
6585.885432231437
 21
-9529.834272174904
 31
0.0000000000001357
  0
LINE
  5
22C
330
2
100
AcDbEntity
  8
0
 62
     1
370
     5
100
AcDbLine
 10
6585.885432231437
 20
-8137.914271623357
 30
0.0000000000001357
 11
6585.885432231437
 21
-8498.894384694917
 31
0.0000000000001357
  0
LINE
  5
22D
330
2
100
AcDbEntity
  8
0
 62
     1
370
     5
100
AcDbLine
 10
6585.885432231437
 20
-8037.914271623348
 30
0.0000000000001357
 11
6585.885432231437
 21
-8007.914271623347
 31
0.0000000000001357
  0
LINE
  5
22E
330
2
100
AcDbEntity
  8
0
 62
     1
370
     5
100
AcDbLine
 10
6585.885432231437
 20
-8137.914271623357
 30
0.0000000000001357
 11
6585.885432231437
 21
-8167.914271623358
 31
0.0000000000001357
  0
LINE
  5
22F
330
2
100
AcDbEntity
  8
0
 62
     1
370
     5
100
AcDbLine
 10
6585.885432231437
 20
-8067.914271623347
 30
0.0000000000001357
 11
6585.885432231437
 21
-8107.914271623357
 31
0.0000000000001357
  0
LINE
  5
230
330
2
100
AcDbEntity
  8
0
 62
     1
370
     5
100
AcDbLine
 10
6312.428979495998
 20
-7368.143072450554
 30
0.0000000000001357
 11
4978.428979137352
 21
-7368.143072450554
 31
0.0000000000001357
  0
LINE
  5
231
330
2
100
AcDbEntity
  8
0
 62
     1
370
     5
100
AcDbLine
 10
6312.428979495998
 20
-7682.045868104548
 30
0.0000000000001357
 11
6118.560566067376
 21
-7682.045868104548
 31
0.0000000000001357
  0
LINE
  5
232
330
2
100
AcDbEntity
  8
0
  6
HIDDEN
 62
     1
370
     5
100
AcDbLine
 10
5788.888979495999
 20
-9616.834272174903
 30
0.0
 11
6222.888979496
 21
-9616.834272174909
 31
0.0
  0
LINE
  5
233
330
2
100
AcDbEntity
  8
0
  6
HIDDEN
 62
     1
370
     5
100
AcDbLine
 10
6222.888979496
 20
-9616.834272174909
 30
0.0
 11
6222.888979496
 21
-9396.834272174906
 31
0.0
  0
LINE
  5
234
330
2
100
AcDbEntity
  8
0
  6
HIDDEN
 62
     1
370
     5
100
AcDbLine
 10
6222.888979496
 20
-9396.834272174906
 30
0.0
 11
5788.888979495999
 21
-9396.834272174906
 31
0.0
  0
LINE
  5
235
330
2
100
AcDbEntity
  8
0
  6
HIDDEN
 62
     1
370
     5
100
AcDbLine
 10
5788.888979495999
 20
-9396.834272174906
 30
0.0
 11
5788.888979495999
 21
-9616.834272174903
 31
0.0
  0
LINE
  5
236
330
2
100
AcDbEntity
  8
0
370
     5
100
AcDbLine
 10
5343.388979137353
 20
-8067.914271623356
 30
-1.999999999998784
 11
5343.388979137353
 21
-7809.679949241169
 31
-1.999999999998784
  0
LINE
  5
237
330
2
100
AcDbEntity
  8
0
370
     5
100
AcDbLine
 10
5343.388979137353
 20
-7809.679949241169
 30
-1.999999999998784
 11
4916.772318643179
 21
-7809.679949241169
 31
-1.999999999998784
  0
LINE
  5
238
330
2
100
AcDbEntity
  8
0
 62
     1
370
     5
100
AcDbLine
 10
537.0193671783125
 20
-8097.914271623347
 30
0.0000000000001357
 11
537.0193671783125
 21
-9529.834272174904
 31
0.0000000000001357
  0
LINE
  5
239
330
2
100
AcDbEntity
  8
0
 62
     1
370
     5
100
AcDbLine
 10
796.8904036386446
 20
-8558.894384694914
 30
0.0000000000001357
 11
796.8904036386446
 21
-9529.834272174904
 31
0.0000000000001357
  0
LINE
  5
23A
330
2
100
AcDbEntity
  8
0
 62
     1
370
     5
100
AcDbLine
 10
796.8904036386446
 20
-8137.914271623357
 30
0.0000000000001357
 11
796.8904036386446
 21
-8498.894384694917
 31
0.0000000000001357
  0
LINE
  5
23B
330
2
100
AcDbEntity
  8
0
 62
     1
370
     5
100
AcDbLine
 10
796.8904036386446
 20
-8037.914271623346
 30
0.0000000000001357
 11
796.8904036386446
 21
-8007.914271623347
 31
0.0000000000001357
  0
LINE
  5
23C
330
2
100
AcDbEntity
  8
0
 62
     1
370
     5
100
AcDbLine
 10
796.8904036386446
 20
-8137.914271623357
 30
0.0000000000001357
 11
796.8904036386446
 21
-8167.914271623358
 31
0.0000000000001357
  0
LINE
  5
23D
330
2
100
AcDbEntity
  8
0
 62
     1
370
     5
100
AcDbLine
 10
796.8904036386446
 20
-8067.914271623347
 30
0.0000000000001357
 11
796.8904036386446
 21
-8107.914271623355
 31
0.0000000000001357
  0
LINE
  5
23E
330
2
100
AcDbEntity
  8
0
 62
     1
370
     5
100
AcDbLine
 10
1070.346856374082
 20
-7368.143072450554
 30
0.0000000000001357
 11
2404.346856732729
 21
-7368.143072450554
 31
0.0000000000001357
  0
LINE
  5
23F
330
2
100
AcDbEntity
  8
0
 62
     1
370
     5
100
AcDbLine
 10
1070.346856374082
 20
-7682.045868104548
 30
0.0000000000001357
 11
1264.215269802706
 21
-7682.045868104548
 31
0.0000000000001357
  0
LINE
  5
240
330
2
100
AcDbEntity
  8
0
  6
HIDDEN
 62
     1
370
     5
100
AcDbLine
 10
1593.886856374082
 20
-9616.834272174903
 30
0.0
 11
1159.886856374082
 21
-9616.834272174909
 31
0.0
  0
LINE
  5
241
330
2
100
AcDbEntity
  8
0
  6
HIDDEN
 62
     1
370
     5
100
AcDbLine
 10
1159.886856374082
 20
-9616.834272174909
 30
0.0
 11
1159.886856374082
 21
-9396.834272174906
 31
0.0
  0
LINE
  5
242
330
2
100
AcDbEntity
  8
0
  6
HIDDEN
 62
     1
370
     5
100
AcDbLine
 10
1159.886856374082
 20
-9396.834272174906
 30
0.0
 11
1593.886856374082
 21
-9396.834272174906
 31
0.0
  0
LINE
  5
243
330
2
100
AcDbEntity
  8
0
  6
HIDDEN
 62
     1
370
     5
100
AcDbLine
 10
1593.886856374082
 20
-9396.834272174906
 30
0.0
 11
1593.886856374082
 21
-9616.834272174903
 31
0.0
  0
LINE
  5
244
330
2
100
AcDbEntity
  8
0
370
     5
100
AcDbLine
 10
2039.386856732728
 20
-8067.914271623356
 30
-1.999999999998784
 11
2039.386856732728
 21
-7809.679949241169
 31
-1.999999999998784
  0
LINE
  5
245
330
2
100
AcDbEntity
  8
0
370
     5
100
AcDbLine
 10
2039.386856732728
 20
-7809.679949241169
 30
-1.999999999998784
 11
2466.003517226902
 21
-7809.679949241169
 31
-1.999999999998784
  0
LINE
  5
246
330
2
100
AcDbEntity
  8
0
370
     5
100
AcDbLine
 10
-1521.301272342673
 20
-18037.65449480281
 30
0.0
 11
-1521.301272342673
 21
-4017.654494802819
 31
0.0
  0
LINE
  5
247
330
2
100
AcDbEntity
  8
0
370
     5
100
AcDbLine
 10
-1521.301272342673
 20
-4017.654494802819
 30
0.0
 11
8678.698727657359
 21
-4017.654494802819
 31
0.0
  0
LINE
  5
248
330
2
100
AcDbEntity
  8
0
370
     5
100
AcDbLine
 10
8678.698727657359
 20
-4017.654494802819
 30
0.0
 11
8678.698727657359
 21
-18037.65449480281
 31
0.0
  0
LINE
  5
249
330
2
100
AcDbEntity
  8
0
370
     5
100
AcDbLine
 10
8678.698727657359
 20
-18037.65449480281
 30
0.0
 11
-1521.301272342673
 21
-18037.65449480281
 31
0.0
  0
TEXT
  5
24A
330
2
100
AcDbEntity
  8
0
 62
    10
370
     5
100
AcDbText
 10
5376.20905831665
 20
-7642.045868104547
 30
0.0000000000001357
 40
80.0
  1
1140
 41
0.9
  7
ROMANS
100
AcDbText
  0
LINE
  5
24C
330
2
100
AcDbEntity
  8
0
 62
     1
370
     5
100
AcDbLine
 10
6088.560566067378
 20
-7715.045868104549
 30
0.0000000000001357
 11
6088.560566067378
 21
-7649.045868104548
 31
0.0000000000001357
  0
LWPOLYLINE
  5
24D
330
2
100
AcDbEntity
  8
0
 62
     1
370
     5
100
AcDbPolyline
 90
        2
 70
     0
 43
9.000000000000001
 10
6067.347362631781
 20
-7703.259071540142
 10
6109.773769502973
 20
-7660.832664668951
  0
LINE
  5
24E
330
2
100
AcDbEntity
  8
0
 62
     1
370
     5
100
AcDbLine
 10
6124.560566067378
 20
-7682.045868104548
 30
0.0000000000001357
 11
6052.560566067378
 21
-7682.045868104548
 31
0.0000000000001357
  0
LINE
  5
24F
330
2
100
AcDbEntity
  8
0
 62
     1
370
     5
100
AcDbLine
 10
4948.42897913735
 20
-7649.045868104548
 30
0.0000000000001357
 11
4948.42897913735
 21
-7715.045868104549
 31
0.0000000000001357
  0
LWPOLYLINE
  5
250
330
2
100
AcDbEntity
  8
0
 62
     1
370
     5
100
AcDbPolyline
 90
        2
 70
     0
 43
9.000000000000001
 10
4969.642182572947
 20
-7660.832664668953
 10
4927.215775701755
 20
-7703.259071540145
  0
LINE
  5
251
330
2
100
AcDbEntity
  8
0
 62
     1
370
     5
100
AcDbLine
 10
4912.428979137349
 20
-7682.045868104548
 30
0.0000000000001357
 11
4984.42897913735
 21
-7682.045868104548
 31
0.0000000000001357
  0
TEXT
  5
252
330
2
100
AcDbEntity
  8
0
 62
    10
370
     5
100
AcDbText
 10
1721.995348982003
 20
-7642.045868104549
 30
0.0000000000001357
 40
80.0
  1
1140
 41
0.9
  7
ROMANS
100
AcDbText
  0
LINE
  5
253
330
2
100
AcDbEntity
  8
0
 62
     1
370
     5
100
AcDbLine
 10
2434.346856732732
 20
-7715.045868104549
 30
0.0000000000001357
 11
2434.346856732732
 21
-7649.045868104548
 31
0.0000000000001357
  0
LWPOLYLINE
  5
254
330
2
100
AcDbEntity
  8
0
 62
     1
370
     5
100
AcDbPolyline
 90
        2
 70
     0
 43
9.000000000000001
 10
2413.133653297135
 20
-7703.259071540142
 10
2455.560060168326
 20
-7660.832664668951
  0
LINE
  5
255
330
2
100
AcDbEntity
  8
0
 62
     1
370
     5
100
AcDbLine
 10
2470.346856732732
 20
-7682.045868104548
 30
0.0000000000001357
 11
2398.346856732732
 21
-7682.045868104548
 31
0.0000000000001357
  0
LINE
  5
256
330
2
100
AcDbEntity
  8
0
 62
     1
370
     5
100
AcDbLine
 10
1294.215269802703
 20
-7649.045868104548
 30
0.0000000000001357
 11
1294.215269802703
 21
-7715.045868104549
 31
0.0000000000001357
  0
LWPOLYLINE
  5
257
330
2
100
AcDbEntity
  8
0
 62
     1
370
     5
100
AcDbPolyline
 90
        2
 70
     0
 43
9.000000000000001
 10
1315.4284732383
 20
-7660.832664668953
 10
1273.002066367108
 20
-7703.259071540145
  0
LINE
  5
258
330
2
100
AcDbEntity
  8
0
 62
     1
370
     5
100
AcDbLine
 10
1258.215269802703
 20
-7682.045868104548
 30
0.0000000000001357
 11
1330.215269802703
 21
-7682.045868104548
 31
0.0000000000001357
  0
TEXT
  5
259
330
2
100
AcDbEntity
  8
0
 62
    10
370
     5
100
AcDbText
 10
6805.75646869177
 20
-8956.159986184839
 30
0.0000000000001357
 40
80.0
  1
1492
 50
90.0
 41
0.9
  7
ROMANS
100
AcDbText
  0
LINE
  5
25A
330
2
100
AcDbEntity
  8
0
 62
     1
370
     5
100
AcDbLine
 10
6812.756468691768
 20
-9559.834272174908
 30
0.0000000000001357
 11
6878.756468691769
 21
-9559.834272174908
 31
0.0000000000001357
  0
LWPOLYLINE
  5
25B
330
2
100
AcDbEntity
  8
0
 62
     1
370
     5
100
AcDbPolyline
 90
        2
 70
     0
 43
9.000000000000001
 10
6824.543265256174
 20
-9538.621068739308
 10
6866.969672127367
 20
-9581.047475610505
  0
LINE
  5
25C
330
2
100
AcDbEntity
  8
0
 62
     1
370
     5
100
AcDbLine
 10
6845.756468691769
 20
-9595.83427217491
 30
0.0000000000001357
 11
6845.756468691769
 21
-9523.834272174909
 31
0.0000000000001357
  0
LINE
  5
25D
330
2
100
AcDbEntity
  8
0
 62
     1
370
     5
100
AcDbLine
 10
6878.756468691769
 20
-8067.914271623344
 30
0.0000000000001357
 11
6812.756468691768
 21
-8067.914271623344
 31
0.0000000000001357
  0
LWPOLYLINE
  5
25E
330
2
100
AcDbEntity
  8
0
 62
     1
370
     5
100
AcDbPolyline
 90
        2
 70
     0
 43
9.000000000000001
 10
6866.969672127365
 20
-8089.127475058942
 10
6824.543265256171
 20
-8046.701068187749
  0
LINE
  5
25F
330
2
100
AcDbEntity
  8
0
 62
     1
370
     5
100
AcDbLine
 10
6845.756468691769
 20
-8031.914271623344
 30
0.0000000000001357
 11
6845.756468691769
 21
-8103.914271623343
 31
0.0000000000001357
  0
TEXT
  5
260
330
2
100
AcDbEntity
  8
0
 62
    10
370
     5
100
AcDbText
 10
6545.885432231438
 20
-9176.364328434909
 30
0.0000000000001357
 40
80.0
  1
1031
 50
90.0
 41
0.9
  7
ROMANS
100
AcDbText
  0
LINE
  5
261
330
2
100
AcDbEntity
  8
0
 62
     1
370
     5
100
AcDbLine
 10
6552.885432231436
 20
-9559.834272174908
 30
0.0000000000001357
 11
6618.885432231436
 21
-9559.834272174908
 31
0.0000000000001357
  0
LWPOLYLINE
  5
262
330
2
100
AcDbEntity
  8
0
 62
     1
370
     5
100
AcDbPolyline
 90
        2
 70
     0
 43
9.000000000000001
 10
6564.672228795842
 20
-9538.621068739308
 10
6607.098635667033
 20
-9581.047475610505
  0
LINE
  5
263
330
2
100
AcDbEntity
  8
0
 62
     1
370
     5
100
AcDbLine
 10
6585.885432231437
 20
-9595.83427217491
 30
0.0000000000001357
 11
6585.885432231437
 21
-9523.834272174909
 31
0.0000000000001357
  0
LINE
  5
264
330
2
100
AcDbEntity
  8
0
 62
     1
370
     5
100
AcDbLine
 10
6618.885432231436
 20
-8528.894384694915
 30
0.0000000000001357
 11
6552.885432231436
 21
-8528.894384694913
 31
0.0000000000001357
  0
LWPOLYLINE
  5
265
330
2
100
AcDbEntity
  8
0
 62
     1
370
     5
100
AcDbPolyline
 90
        2
 70
     0
 43
9.000000000000001
 10
6607.098635667033
 20
-8550.107588130511
 10
6564.672228795839
 20
-8507.68118125932
  0
LINE
  5
266
330
2
100
AcDbEntity
  8
0
 62
     1
370
     5
100
AcDbLine
 10
6585.885432231437
 20
-8492.894384694915
 30
0.0000000000001357
 11
6585.885432231437
 21
-8564.894384694914
 31
0.0000000000001357
  0
TEXT
  5
267
330
2
100
AcDbEntity
  8
0
 62
    10
370
     5
100
AcDbText
 10
6545.885432231438
 20
-8410.975756730563
 30
0.0000000000001357
 40
80.0
  1
421
 50
90.0
 41
0.9
  7
ROMANS
100
AcDbText
  0
LINE
  5
268
330
2
100
AcDbEntity
  8
0
 62
     1
370
     5
100
AcDbLine
 10
6552.885432231436
 20
-8528.89438469492
 30
0.0000000000001357
 11
6618.885432231436
 21
-8528.89438469492
 31
0.0000000000001357
  0
LWPOLYLINE
  5
269
330
2
100
AcDbEntity
  8
0
 62
     1
370
     5
100
AcDbPolyline
 90
        2
 70
     0
 43
9.000000000000001
 10
6564.672228795842
 20
-8507.681181259322
 10
6607.098635667033
 20
-8550.107588130515
  0
LINE
  5
26A
330
2
100
AcDbEntity
  8
0
 62
     1
370
     5
100
AcDbLine
 10
6585.885432231437
 20
-8564.894384694921
 30
0.0000000000001357
 11
6585.885432231437
 21
-8492.894384694919
 31
0.0000000000001357
  0
LINE
  5
26B
330
2
100
AcDbEntity
  8
0
 62
     1
370
     5
100
AcDbLine
 10
6618.885432231436
 20
-8107.914271623355
 30
0.0000000000001357
 11
6552.885432231436
 21
-8107.914271623355
 31
0.0000000000001357
  0
LWPOLYLINE
  5
26C
330
2
100
AcDbEntity
  8
0
 62
     1
370
     5
100
AcDbPolyline
 90
        2
 70
     0
 43
9.000000000000001
 10
6607.098635667033
 20
-8129.127475058952
 10
6564.672228795839
 20
-8086.701068187759
  0
LINE
  5
26D
330
2
100
AcDbEntity
  8
0
 62
     1
370
     5
100
AcDbLine
 10
6585.885432231437
 20
-8071.914271623354
 30
0.0000000000001357
 11
6585.885432231437
 21
-8143.914271623355
 31
0.0000000000001357
  0
TEXT
  5
26E
330
2
100
AcDbEntity
  8
0
 62
    10
370
     5
100
AcDbText
 10
6545.885432231438
 20
-8156.485700194776
 30
0.0000000000001357
 40
80.0
  1
40
 50
90.0
 41
0.9
  7
ROMANS
100
AcDbText
  0
LINE
  5
26F
330
2
100
AcDbEntity
  8
0
 62
     1
370
     5
100
AcDbLine
 10
6618.885432231436
 20
-8107.914271623355
 30
0.0000000000001357
 11
6552.885432231436
 21
-8107.914271623355
 31
0.0000000000001357
  0
LWPOLYLINE
  5
270
330
2
100
AcDbEntity
  8
0
 62
     1
370
     5
100
AcDbPolyline
 90
        2
 70
     0
 43
9.000000000000001
 10
6607.098635667033
 20
-8129.127475058952
 10
6564.672228795839
 20
-8086.701068187759
  0
LINE
  5
271
330
2
100
AcDbEntity
  8
0
 62
     1
370
     5
100
AcDbLine
 10
6585.885432231437
 20
-8071.914271623354
 30
0.0000000000001357
 11
6585.885432231437
 21
-8143.914271623355
 31
0.0000000000001357
  0
LINE
  5
272
330
2
100
AcDbEntity
  8
0
 62
     1
370
     5
100
AcDbLine
 10
6552.885432231436
 20
-8067.914271623349
 30
0.0000000000001357
 11
6618.885432231436
 21
-8067.914271623349
 31
0.0000000000001357
  0
LWPOLYLINE
  5
273
330
2
100
AcDbEntity
  8
0
 62
     1
370
     5
100
AcDbPolyline
 90
        2
 70
     0
 43
9.000000000000001
 10
6564.672228795842
 20
-8046.701068187752
 10
6607.098635667033
 20
-8089.127475058942
  0
LINE
  5
274
330
2
100
AcDbEntity
  8
0
 62
     1
370
     5
100
AcDbLine
 10
6585.885432231437
 20
-8103.91427162335
 30
0.0000000000001357
 11
6585.885432231437
 21
-8031.91427162335
 31
0.0000000000001357
  0
TEXT
  5
275
330
2
100
AcDbEntity
  8
0
 62
    10
370
     5
100
AcDbText
 10
5501.428979316674
 20
-7328.143072450554
 30
0.0000000000001357
 40
80.0
  1
1394
 41
0.9
  7
ROMANS
100
AcDbText
  0
LINE
  5
276
330
2
100
AcDbEntity
  8
0
 62
     1
370
     5
100
AcDbLine
 10
4948.42897913735
 20
-7335.143072450556
 30
0.0000000000001357
 11
4948.42897913735
 21
-7401.143072450556
 31
0.0000000000001357
  0
LWPOLYLINE
  5
277
330
2
100
AcDbEntity
  8
0
 62
     1
370
     5
100
AcDbPolyline
 90
        2
 70
     0
 43
9.000000000000001
 10
4969.642182572947
 20
-7346.92986901496
 10
4927.215775701755
 20
-7389.356275886154
  0
LINE
  5
278
330
2
100
AcDbEntity
  8
0
 62
     1
370
     5
100
AcDbLine
 10
4912.428979137349
 20
-7368.143072450554
 30
0.0000000000001357
 11
4984.42897913735
 21
-7368.143072450554
 31
0.0000000000001357
  0
LINE
  5
279
330
2
100
AcDbEntity
  8
0
 62
     1
370
     5
100
AcDbLine
 10
6342.428979496002
 20
-7401.143072450556
 30
0.0000000000001357
 11
6342.428979496002
 21
-7335.143072450556
 31
0.0000000000001357
  0
LWPOLYLINE
  5
27A
330
2
100
AcDbEntity
  8
0
 62
     1
370
     5
100
AcDbPolyline
 90
        2
 70
     0
 43
9.000000000000001
 10
6321.215776060404
 20
-7389.356275886149
 10
6363.642182931595
 20
-7346.929869014957
  0
LINE
  5
27B
330
2
100
AcDbEntity
  8
0
 62
     1
370
     5
100
AcDbLine
 10
6378.428979496002
 20
-7368.143072450554
 30
0.0000000000001357
 11
6306.428979496002
 21
-7368.143072450554
 31
0.0000000000001357
  0
TEXT
  5
27C
330
2
100
AcDbEntity
  8
0
 62
    10
370
     5
100
AcDbText
 10
6110.923344210258
 20
-7642.045868104547
 30
0.0000000000001357
 40
80.0
  1
254
 41
0.9
  7
ROMANS
100
AcDbText
  0
LINE
  5
27D
330
2
100
AcDbEntity
  8
0
 62
     1
370
     5
100
AcDbLine
 10
6088.560566067371
 20
-7649.045868104548
 30
0.0000000000001357
 11
6088.560566067371
 21
-7715.045868104549
 31
0.0000000000001357
  0
LWPOLYLINE
  5
27E
330
2
100
AcDbEntity
  8
0
 62
     1
370
     5
100
AcDbPolyline
 90
        2
 70
     0
 43
9.000000000000001
 10
6109.77376950297
 20
-7660.832664668953
 10
6067.347362631778
 20
-7703.259071540145
  0
LINE
  5
27F
330
2
100
AcDbEntity
  8
0
 62
     1
370
     5
100
AcDbLine
 10
6052.560566067373
 20
-7682.045868104548
 30
0.0000000000001357
 11
6124.560566067373
 21
-7682.045868104548
 31
0.0000000000001357
  0
LINE
  5
280
330
2
100
AcDbEntity
  8
0
 62
     1
370
     5
100
AcDbLine
 10
6342.428979496002
 20
-7715.045868104549
 30
0.0000000000001357
 11
6342.428979496002
 21
-7649.045868104548
 31
0.0000000000001357
  0
LWPOLYLINE
  5
281
330
2
100
AcDbEntity
  8
0
 62
     1
370
     5
100
AcDbPolyline
 90
        2
 70
     0
 43
9.000000000000001
 10
6321.215776060404
 20
-7703.259071540142
 10
6363.642182931595
 20
-7660.832664668951
  0
LINE
  5
282
330
2
100
AcDbEntity
  8
0
 62
     1
370
     5
100
AcDbLine
 10
6378.428979496002
 20
-7682.045868104548
 30
0.0000000000001357
 11
6306.428979496002
 21
-7682.045868104548
 31
0.0000000000001357
  0
TEXT
  5
283
330
2
100
AcDbEntity
  8
0
 62
    10
370
     5
100
AcDbText
 10
497.0193671783142
 20
-8956.159986184839
 30
0.0000000000001357
 40
80.0
  1
1492
 50
90.0
 41
0.9
  7
ROMANS
100
AcDbText
  0
LINE
  5
284
330
2
100
AcDbEntity
  8
0
 62
     1
370
     5
100
AcDbLine
 10
504.0193671783127
 20
-9559.834272174908
 30
0.0000000000001357
 11
570.0193671783125
 21
-9559.834272174908
 31
0.0000000000001357
  0
LWPOLYLINE
  5
285
330
2
100
AcDbEntity
  8
0
 62
     1
370
     5
100
AcDbPolyline
 90
        2
 70
     0
 43
9.000000000000001
 10
515.8061637427181
 20
-9538.621068739308
 10
558.23257061391
 20
-9581.047475610505
  0
LINE
  5
286
330
2
100
AcDbEntity
  8
0
 62
     1
370
     5
100
AcDbLine
 10
537.0193671783125
 20
-9595.83427217491
 30
0.0000000000001357
 11
537.0193671783125
 21
-9523.834272174909
 31
0.0000000000001357
  0
LINE
  5
287
330
2
100
AcDbEntity
  8
0
 62
     1
370
     5
100
AcDbLine
 10
570.0193671783125
 20
-8067.914271623344
 30
0.0000000000001357
 11
504.0193671783127
 21
-8067.914271623344
 31
0.0000000000001357
  0
LWPOLYLINE
  5
288
330
2
100
AcDbEntity
  8
0
 62
     1
370
     5
100
AcDbPolyline
 90
        2
 70
     0
 43
9.000000000000001
 10
558.2325706139071
 20
-8089.127475058942
 10
515.8061637427151
 20
-8046.701068187749
  0
LINE
  5
289
330
2
100
AcDbEntity
  8
0
 62
     1
370
     5
100
AcDbLine
 10
537.0193671783125
 20
-8031.914271623344
 30
0.0000000000001357
 11
537.0193671783125
 21
-8103.914271623343
 31
0.0000000000001357
  0
TEXT
  5
28A
330
2
100
AcDbEntity
  8
0
 62
    10
370
     5
100
AcDbText
 10
756.8904036386467
 20
-9176.364328434909
 30
0.0000000000001357
 40
80.0
  1
1031
 50
90.0
 41
0.9
  7
ROMANS
100
AcDbText
  0
LINE
  5
28B
330
2
100
AcDbEntity
  8
0
 62
     1
370
     5
100
AcDbLine
 10
763.8904036386445
 20
-9559.834272174908
 30
0.0000000000001357
 11
829.8904036386446
 21
-9559.834272174908
 31
0.0000000000001357
  0
LWPOLYLINE
  5
28C
330
2
100
AcDbEntity
  8
0
 62
     1
370
     5
100
AcDbPolyline
 90
        2
 70
     0
 43
9.000000000000001
 10
775.6772002030502
 20
-9538.621068739308
 10
818.1036070742418
 20
-9581.047475610505
  0
LINE
  5
28D
330
2
100
AcDbEntity
  8
0
 62
     1
370
     5
100
AcDbLine
 10
796.8904036386446
 20
-9595.83427217491
 30
0.0000000000001357
 11
796.8904036386446
 21
-9523.834272174909
 31
0.0000000000001357
  0
LINE
  5
28E
330
2
100
AcDbEntity
  8
0
 62
     1
370
     5
100
AcDbLine
 10
829.8904036386446
 20
-8528.894384694915
 30
0.0000000000001357
 11
763.8904036386445
 21
-8528.894384694913
 31
0.0000000000001357
  0
LWPOLYLINE
  5
28F
330
2
100
AcDbEntity
  8
0
 62
     1
370
     5
100
AcDbPolyline
 90
        2
 70
     0
 43
9.000000000000001
 10
818.1036070742392
 20
-8550.107588130511
 10
775.6772002030475
 20
-8507.68118125932
  0
LINE
  5
290
330
2
100
AcDbEntity
  8
0
 62
     1
370
     5
100
AcDbLine
 10
796.8904036386446
 20
-8492.894384694915
 30
0.0000000000001357
 11
796.8904036386446
 21
-8564.894384694914
 31
0.0000000000001357
  0
TEXT
  5
291
330
2
100
AcDbEntity
  8
0
 62
    10
370
     5
100
AcDbText
 10
756.8904036386467
 20
-8410.975756730564
 30
0.0000000000001357
 40
80.0
  1
421
 50
90.0
 41
0.9
  7
ROMANS
100
AcDbText
  0
LINE
  5
292
330
2
100
AcDbEntity
  8
0
 62
     1
370
     5
100
AcDbLine
 10
763.8904036386445
 20
-8528.89438469492
 30
0.0000000000001357
 11
829.8904036386446
 21
-8528.89438469492
 31
0.0000000000001357
  0
LWPOLYLINE
  5
293
330
2
100
AcDbEntity
  8
0
 62
     1
370
     5
100
AcDbPolyline
 90
        2
 70
     0
 43
9.000000000000001
 10
775.6772002030502
 20
-8507.681181259322
 10
818.1036070742418
 20
-8550.107588130515
  0
LINE
  5
294
330
2
100
AcDbEntity
  8
0
 62
     1
370
     5
100
AcDbLine
 10
796.8904036386446
 20
-8564.894384694921
 30
0.0000000000001357
 11
796.8904036386446
 21
-8492.894384694919
 31
0.0000000000001357
  0
LINE
  5
295
330
2
100
AcDbEntity
  8
0
 62
     1
370
     5
100
AcDbLine
 10
829.8904036386446
 20
-8107.914271623355
 30
0.0000000000001357
 11
763.8904036386445
 21
-8107.914271623355
 31
0.0000000000001357
  0
LWPOLYLINE
  5
296
330
2
100
AcDbEntity
  8
0
 62
     1
370
     5
100
AcDbPolyline
 90
        2
 70
     0
 43
9.000000000000001
 10
818.1036070742392
 20
-8129.12747505895
 10
775.6772002030475
 20
-8086.701068187759
  0
LINE
  5
297
330
2
100
AcDbEntity
  8
0
 62
     1
370
     5
100
AcDbLine
 10
796.8904036386446
 20
-8071.914271623354
 30
0.0000000000001357
 11
796.8904036386446
 21
-8143.914271623353
 31
0.0000000000001357
  0
TEXT
  5
298
330
2
100
AcDbEntity
  8
0
 62
    10
370
     5
100
AcDbText
 10
756.8904036386467
 20
-8156.48570019478
 30
0.0000000000001357
 40
80.0
  1
40
 50
90.0
 41
0.9
  7
ROMANS
100
AcDbText
  0
LINE
  5
299
330
2
100
AcDbEntity
  8
0
 62
     1
370
     5
100
AcDbLine
 10
829.8904036386446
 20
-8107.914271623355
 30
0.0000000000001357
 11
763.8904036386445
 21
-8107.914271623355
 31
0.0000000000001357
  0
LWPOLYLINE
  5
29A
330
2
100
AcDbEntity
  8
0
 62
     1
370
     5
100
AcDbPolyline
 90
        2
 70
     0
 43
9.000000000000001
 10
818.1036070742392
 20
-8129.12747505895
 10
775.6772002030475
 20
-8086.701068187759
  0
LINE
  5
29B
330
2
100
AcDbEntity
  8
0
 62
     1
370
     5
100
AcDbLine
 10
796.8904036386446
 20
-8071.914271623354
 30
0.0000000000001357
 11
796.8904036386446
 21
-8143.914271623353
 31
0.0000000000001357
  0
LINE
  5
29C
330
2
100
AcDbEntity
  8
0
 62
     1
370
     5
100
AcDbLine
 10
763.8904036386445
 20
-8067.914271623349
 30
0.0000000000001357
 11
829.8904036386446
 21
-8067.914271623349
 31
0.0000000000001357
  0
LWPOLYLINE
  5
29D
330
2
100
AcDbEntity
  8
0
 62
     1
370
     5
100
AcDbPolyline
 90
        2
 70
     0
 43
9.000000000000001
 10
775.6772002030502
 20
-8046.701068187752
 10
818.1036070742418
 20
-8089.127475058942
  0
LINE
  5
29E
330
2
100
AcDbEntity
  8
0
 62
     1
370
     5
100
AcDbLine
 10
796.8904036386446
 20
-8103.91427162335
 30
0.0000000000001357
 11
796.8904036386446
 21
-8031.914271623348
 31
0.0000000000001357
  0
TEXT
  5
29F
330
2
100
AcDbEntity
  8
0
 62
    10
370
     5
100
AcDbText
 10
1593.346856553405
 20
-7328.143072450554
 30
0.0000000000001357
 40
80.0
  1
1394
 41
0.9
  7
ROMANS
100
AcDbText
  0
LINE
  5
2A0
330
2
100
AcDbEntity
  8
0
 62
     1
370
     5
100
AcDbLine
 10
2434.346856732732
 20
-7401.143072450556
 30
0.0000000000001357
 11
2434.346856732732
 21
-7335.143072450556
 31
0.0000000000001357
  0
LWPOLYLINE
  5
2A1
330
2
100
AcDbEntity
  8
0
 62
     1
370
     5
100
AcDbPolyline
 90
        2
 70
     0
 43
9.000000000000001
 10
2413.133653297135
 20
-7389.356275886149
 10
2455.560060168326
 20
-7346.929869014957
  0
LINE
  5
2A2
330
2
100
AcDbEntity
  8
0
 62
     1
370
     5
100
AcDbLine
 10
2470.346856732732
 20
-7368.143072450554
 30
0.0000000000001357
 11
2398.346856732732
 21
-7368.143072450554
 31
0.0000000000001357
  0
LINE
  5
2A3
330
2
100
AcDbEntity
  8
0
 62
     1
370
     5
100
AcDbLine
 10
1040.34685637408
 20
-7335.143072450556
 30
0.0000000000001357
 11
1040.34685637408
 21
-7401.143072450556
 31
0.0000000000001357
  0
LWPOLYLINE
  5
2A4
330
2
100
AcDbEntity
  8
0
 62
     1
370
     5
100
AcDbPolyline
 90
        2
 70
     0
 43
9.000000000000001
 10
1061.560059809677
 20
-7346.92986901496
 10
1019.133652938485
 20
-7389.356275886154
  0
LINE
  5
2A5
330
2
100
AcDbEntity
  8
0
 62
     1
370
     5
100
AcDbLine
 10
1004.34685637408
 20
-7368.143072450554
 30
0.0000000000001357
 11
1076.34685637408
 21
-7368.143072450554
 31
0.0000000000001357
  0
TEXT
  5
2A6
330
2
100
AcDbEntity
  8
0
 62
    10
370
     5
100
AcDbText
 10
1062.709634516965
 20
-7642.045868104547
 30
0.0000000000001357
 40
80.0
  1
254
 41
0.9
  7
ROMANS
100
AcDbText
  0
LINE
  5
2A7
330
2
100
AcDbEntity
  8
0
 62
     1
370
     5
100
AcDbLine
 10
1294.215269802708
 20
-7715.045868104549
 30
0.0000000000001357
 11
1294.215269802708
 21
-7649.045868104548
 31
0.0000000000001357
  0
LWPOLYLINE
  5
2A8
330
2
100
AcDbEntity
  8
0
 62
     1
370
     5
100
AcDbPolyline
 90
        2
 70
     0
 43
9.000000000000001
 10
1273.002066367111
 20
-7703.259071540142
 10
1315.428473238303
 20
-7660.832664668951
  0
LINE
  5
2A9
330
2
100
AcDbEntity
  8
0
 62
     1
370
     5
100
AcDbLine
 10
1330.215269802708
 20
-7682.045868104548
 30
0.0000000000001357
 11
1258.215269802708
 21
-7682.045868104548
 31
0.0000000000001357
  0
LINE
  5
2AA
330
2
100
AcDbEntity
  8
0
 62
     1
370
     5
100
AcDbLine
 10
1040.34685637408
 20
-7649.045868104548
 30
0.0000000000001357
 11
1040.34685637408
 21
-7715.045868104549
 31
0.0000000000001357
  0
LWPOLYLINE
  5
2AB
330
2
100
AcDbEntity
  8
0
 62
     1
370
     5
100
AcDbPolyline
 90
        2
 70
     0
 43
9.000000000000001
 10
1061.560059809677
 20
-7660.832664668953
 10
1019.133652938485
 20
-7703.259071540145
  0
LINE
  5
2AC
330
2
100
AcDbEntity
  8
0
 62
     1
370
     5
100
AcDbLine
 10
1004.34685637408
 20
-7682.045868104548
 30
0.0000000000001357
 11
1076.34685637408
 21
-7682.045868104548
 31
0.0000000000001357
  0
HATCH
  5
2AD
330
2
100
AcDbEntity
  8
0
 48
4.0
370
     5
100
AcDbHatch
 10
0.0
 20
0.0
 30
0.0
210
0.0
220
0.0
230
1.0
  2
SOLID
 70
     1
 71
     1
 91
        1
 92
        7
 72
     0
 73
     1
 93
        4
 10
1247.345288309047
 20
-8528.89438469492
 10
1147.345288309047
 20
-8528.89438469492
 10
1147.345288309045
 20
-8586.080918174396
 10
1247.345288309045
 20
-8586.080918174396
 97
        4
330
9D
330
DD
330
10A
330
10E
 75
     0
 76
     1
 47
2.072705009216877
 98
        1
 10
1211.381852199722
 20
-8558.309243855324
1001
ACAD
1010
0.0
1020
0.0
1030
0.0
  0
HATCH
  5
2AE
330
2
100
AcDbEntity
  8
0
 48
4.0
370
     5
100
AcDbHatch
 10
0.0
 20
0.0
 30
0.0
210
0.0
220
0.0
230
1.0
  2
SOLID
 70
     1
 71
     1
 91
        1
 92
        7
 72
     0
 73
     1
 93
        4
 10
2311.846856732729
 20
-8107.914271623355
 10
2131.846856732729
 20
-8107.914271623355
 10
2131.846856732729
 20
-8167.914271623351
 10
2311.846856732729
 20
-8167.914271623351
 97
        4
330
10C
330
FF
330
10D
330
103
 75
     0
 76
     1
 47
2.072705009216877
 98
        1
 10
2192.530399186281
 20
-8135.477438010076
1001
ACAD
1010
0.0
1020
0.0
1030
0.0
  0
HATCH
  5
2AF
330
2
100
AcDbEntity
  8
0
 48
4.0
370
     5
100
AcDbHatch
 10
0.0
 20
0.0
 30
0.0
210
0.0
220
0.0
230
1.0
  2
SOLID
 70
     1
 71
     1
 91
        1
 92
        7
 72
     0
 73
     1
 93
        4
 10
2434.346856732727
 20
-8487.874272174932
 10
2374.346856732727
 20
-8487.874272174932
 10
2374.346856732726
 20
-8667.874272174932
 10
2434.346856732725
 20
-8667.874272174932
 97
        4
330
F8
330
111
330
FC
330
112
 75
     0
 76
     1
 47
2.072705009216877
 98
        1
 10
2397.887101595922
 20
-8589.399816448343
1001
ACAD
1010
0.0
1020
0.0
1030
0.0
  0
HATCH
  5
2B0
330
2
100
AcDbEntity
  8
0
 48
4.0
370
     5
100
AcDbHatch
 10
0.0
 20
0.0
 30
0.0
210
0.0
220
0.0
230
1.0
  2
SOLID
 70
     1
 71
     1
 91
        1
 92
        7
 72
     0
 73
     1
 93
        4
 10
5250.928979137352
 20
-8107.914271623355
 10
5070.928979137351
 20
-8107.914271623355
 10
5070.928979137352
 20
-8167.914271623351
 10
5250.928979137351
 20
-8167.914271623351
 97
        4
330
211
330
208
330
212
330
204
 75
     0
 76
     1
 47
2.920729414372877
 98
        1
 10
5187.798560108094
 20
-8132.671777277947
1001
ACAD
1010
0.0
1020
0.0
1030
0.0
  0
HATCH
  5
2B1
330
2
100
AcDbEntity
  8
0
 48
4.0
370
     5
100
AcDbHatch
 10
0.0
 20
0.0
 30
0.0
210
0.0
220
0.0
230
1.0
  2
SOLID
 70
     1
 71
     1
 91
        1
 92
        7
 72
     0
 73
     1
 93
        4
 10
5008.428979137354
 20
-8487.874272174932
 10
4948.428979137354
 20
-8487.874272174932
 10
4948.428979137355
 20
-8667.874272174932
 10
5008.428979137356
 20
-8667.874272174932
 97
        4
330
1FD
330
217
330
201
330
216
 75
     0
 76
     1
 47
2.920729414372877
 98
        1
 10
5000.72713636817
 20
-8556.177534408149
1001
ACAD
1010
0.0
1020
0.0
1030
0.0
  0
HATCH
  5
2B2
330
2
100
AcDbEntity
  8
0
 48
4.0
370
     5
100
AcDbHatch
 10
0.0
 20
0.0
 30
0.0
210
0.0
220
0.0
230
1.0
  2
SOLID
 70
     1
 71
     1
 91
        1
 92
        7
 72
     0
 73
     1
 93
        4
 10
6235.430547561032
 20
-8528.89438469492
 10
6135.430547561036
 20
-8528.89438469492
 10
6135.430547561037
 20
-8586.080918174396
 10
6235.430547561037
 20
-8586.080918174396
 97
        4
330
1A4
330
213
330
20F
330
1E2
 75
     0
 76
     1
 47
2.920729414372877
 98
        1
 10
6219.614403352728
 20
-8559.098253196166
1001
ACAD
1010
0.0
1020
0.0
1030
0.0
  0
LINE
  5
32F
330
2
100
AcDbEntity
  8
0
  6
Continuous
 62
   210
370
     5
100
AcDbLine
 10
1110.386856374082
 20
-9499.834272174899
 30
-0.0000000000002862
 11
1653.386856374079
 21
-9499.834272174899
 31
-0.0000000000002862
  0
LINE
  5
332
330
2
100
AcDbEntity
  8
0
  6
Continuous
 62
   210
370
     5
100
AcDbLine
 10
5729.388979496001
 20
-9499.834272174899
 30
-0.0000000000002862
 11
6230.888979495999
 21
-9499.834272174899
 31
-0.0000000000002862
  0
ENDSEC
  0
SECTION
  2
OBJECTS
  0
DICTIONARY
  5
B
330
0
100
AcDbDictionary
281
     1
  3
ACAD_COLOR
350
2E2
  3
ACAD_GROUP
350
2DD
  3
ACAD_LAYOUT
350
2B5
  3
ACAD_MATERIAL
350
D
  3
ACAD_MLEADERSTYLE
350
327
  3
ACAD_MLINESTYLE
350
2DE
  3
ACAD_PLOTSETTINGS
350
2DF
  3
ACAD_PLOTSTYLENAME
350
A
  3
ACAD_SCALELIST
350
2E3
  3
ACAD_TABLESTYLE
350
2E4
  3
ACAD_VISUALSTYLE
350
2B8
  3
ACDB_RECOMPOSE_DATA
350
30A
  3
AcDbVariableDictionary
350
300
  3
ASE_INDEX_DICTIONARY
350
339
  3
DWGPROPS
350
34B
  0
DICTIONARY
  5
2C1
330
2C0
100
AcDbDictionary
280
     1
281
     1
  3
ACAD_LAYERSTATES
360
2C2
  0
DICTIONARY
  5
7
330
6
100
AcDbDictionary
280
     1
281
     1
  3
ADSK_XREC_LAYER_RECONCILED
360
8
  0
DICTIONARY
  5
3
330
2
100
AcDbDictionary
280
     1
281
     1
  3
ACAD_SORTENTS
360
2FF
  0
DICTIONARY
  5
2E2
102
{ACAD_REACTORS
330
B
102
}
330
B
100
AcDbDictionary
281
     1
  0
DICTIONARY
  5
2DD
102
{ACAD_REACTORS
330
B
102
}
330
B
100
AcDbDictionary
281
     1
  0
DICTIONARY
  5
2B5
102
{ACAD_REACTORS
330
B
102
}
330
B
100
AcDbDictionary
281
     1
  3
Model
350
2B4
  3
Poddasze
350
2BD
  0
DICTIONARY
  5
D
102
{ACAD_REACTORS
330
B
102
}
330
B
100
AcDbDictionary
281
     1
  3
ByBlock
350
2E1
  3
ByLayer
350
2E0
  3
Global
350
C
  0
DICTIONARY
  5
327
102
{ACAD_REACTORS
330
B
102
}
330
B
100
AcDbDictionary
281
     1
  3
Standard
350
328
  0
DICTIONARY
  5
2DE
102
{ACAD_REACTORS
330
B
102
}
330
B
100
AcDbDictionary
281
     1
  3
STANDARD
350
2E5
  0
DICTIONARY
  5
2DF
102
{ACAD_REACTORS
330
B
102
}
330
B
100
AcDbDictionary
281
     1
  0
ACDBDICTIONARYWDFLT
  5
A
102
{ACAD_REACTORS
330
B
102
}
330
B
100
AcDbDictionary
281
     1
  3
Fine
350
9E
  3
Medium
350
53
  3
Normal
350
9
100
AcDbDictionaryWithDefault
340
9
  0
DICTIONARY
  5
2E3
102
{ACAD_REACTORS
330
B
102
}
330
B
100
AcDbDictionary
281
     1
  3
A0
350
2EA
  3
A1
350
2EB
  3
A2
350
2EC
  3
A3
350
2ED
  3
A4
350
2EE
  3
A5
350
2EF
  3
A6
350
2F0
  3
A7
350
2F1
  3
A8
350
2F2
  3
A9
350
2F3
  3
B0
350
2F4
  3
B1
350
2F5
  3
B2
350
2F6
  3
B3
350
2F7
  3
B4
350
2F8
  3
B5
350
2F9
  3
B6
350
2FA
  3
B7
350
2FB
  3
B8
350
2FC
  3
B9
350
2FD
  3
C0
350
2FE
  0
DICTIONARY
  5
2E4
102
{ACAD_REACTORS
330
B
102
}
330
B
100
AcDbDictionary
281
     1
  3
Standard
350
2E6
  0
DICTIONARY
  5
2B8
102
{ACAD_REACTORS
330
B
102
}
330
B
100
AcDbDictionary
281
     1
  3
2dWireframe
350
2B7
  3
3D Hidden
350
31F
  3
3dWireframe
350
2E9
  3
Basic
350
31E
  3
Brighten
350
322
  3
ColorChange
350
326
  3
Conceptual
350
320
  3
Dim
350
321
  3
Facepattern
350
325
  3
Flat
350
31A
  3
FlatWithEdges
350
31B
  3
Gouraud
350
31C
  3
GouraudWithEdges
350
31D
  3
Linepattern
350
324
  3
Realistic
350
2E8
  3
Thicken
350
323
  0
XRECORD
  5
30A
102
{ACAD_REACTORS
330
B
102
}
330
B
100
AcDbXrecord
280
     1
 90
        1
330
2E6
  0
DICTIONARY
  5
300
102
{ACAD_REACTORS
330
B
102
}
330
B
100
AcDbDictionary
281
     1
  3
CANNOSCALE
350
304
  3
CMLEADERSTYLE
350
302
  3
CTABLESTYLE
350
301
  3
DIMASSOC
350
308
  3
HIDETEXT
350
307
  3
INDEXCTL
350
306
  3
MSLTSCALE
350
303
  3
SORTENTS
350
305
  0
DICTIONARY
  5
339
102
{ACAD_REACTORS
330
B
102
}
330
B
100
AcDbDictionary
281
     1
  3
ASEBlockHierarchyIndexRecord
350
33B
1001
DCO15
1040
1655094090.671
  0
XRECORD
  5
34B
102
{ACAD_REACTORS
330
B
102
}
330
B
100
AcDbXrecord
280
     1
  1
DWGPROPS COOKIE
  2

  3

  4

  6

  7

  8
magdalena.jozwik
  9

300
=
301
=
302
=
303
=
304
=
305
=
306
=
307
=
308
=
309
=
 40
21.76511150462963
 41
2450817.525937848
 42
2454959.39345684
  1

 90
        0
  0
DICTIONARY
  5
2C2
102
{ACAD_REACTORS
330
2C1
102
}
330
2C1
100
AcDbDictionary
281
     1
1001
AcLayerTools
1000
39884
1000
0
  0
XRECORD
  5
8
102
{ACAD_REACTORS
330
7
102
}
330
7
100
AcDbXrecord
280
     1
290
     1
  0
SORTENTSTABLE
  5
2FF
102
{ACAD_REACTORS
330
3
102
}
330
3
100
AcDbSortentsTable
330
2
331
78
  5
7E
331
2B2
  5
1E5
331
39
  5
3F
331
41
  5
47
331
80
  5
86
331
49
  5
4F
331
88
  5
8E
331
260
  5
28D
331
1A3
  5
1E4
331
1E2
  5
224
331
F6
  5
FD
331
12D
  5
16E
331
1A
  5
1E
331
51
  5
58
331
90
  5
96
331
B7
  5
BE
331
16C
  5
1AD
331
219
  5
262
331
221
  5
29C
331
268
  5
282
331
174
  5
1B5
331
1AB
  5
1ED
331
BF
  5
C6
331
FE
  5
106
331
135
  5
176
331
1EA
  5
22C
331
1F2
  5
234
331
229
  5
2A3
331
13D
  5
17E
331
17C
  5
1BD
331
C7
  5
CE
331
106
  5
10F
331
1B3
  5
1F5
331
270
  5
27B
331
278
  5
272
331
202
  5
245
331
231
  5
264
331
145
  5
186
331
184
  5
1C5
331
CF
  5
D6
331
10E
  5
11B
331
1BB
  5
1FD
331
29B
  5
13B
331
2A3
  5
12C
331
98
  5
9F
331
22
  5
28
331
59
  5
5F
331
2A8
  5
128
331
2A
  5
30
331
61
  5
67
331
69
  5
6F
331
A8
  5
AF
331
A3
  5
AA
331
280
  5
265
331
1C3
  5
205
331
1FA
  5
23C
331
116
  5
155
331
14D
  5
18E
331
71
  5
77
331
D7
  5
DE
331
18C
  5
1CD
331
239
  5
145
331
241
  5
114
331
288
  5
14F
331
194
  5
1D5
331
1CB
  5
20D
331
DF
  5
E6
331
11E
  5
15D
331
155
  5
196
331
20A
  5
24F
331
212
  5
25B
331
251
  5
2AE
331
19C
  5
1DD
331
1D3
  5
215
331
290
  5
148
331
E7
  5
EE
331
126
  5
165
331
15D
  5
19E
331
259
  5
295
331
165
  5
1A6
331
EF
  5
F6
331
1DB
  5
21D
331
3A
  5
40
331
79
  5
7F
331
42
  5
48
331
81
  5
87
331
89
  5
8F
331
B0
  5
B7
331
4A
  5
50
331
1E3
  5
225
331
21A
  5
263
331
12E
  5
16F
331
16D
  5
1AE
331
52
  5
59
331
91
  5
97
331
B8
  5
BF
331
1B
  5
1F
331
F7
  5
FE
331
1A4
  5
1E6
331
261
  5
28A
331
269
  5
283
331
1AC
  5
1EE
331
1EB
  5
22D
331
136
  5
177
331
175
  5
1B6
331
222
  5
29D
331
C0
  5
C7
331
FF
  5
108
331
271
  5
27C
331
1B4
  5
1F6
331
1F3
  5
235
331
107
  5
110
331
13E
  5
17F
331
C8
  5
CF
331
17D
  5
1BE
331
22A
  5
28E
331
232
  5
254
331
279
  5
26D
331
185
  5
1C6
331
1BC
  5
1FE
331
10F
  5
11C
331
146
  5
187
331
203
  5
246
331
29C
  5
136
331
2A4
  5
12D
331
5A
  5
60
331
99
  5
A1
331
23
  5
29
331
2B
  5
31
331
62
  5
68
331
2A9
  5
129
331
A9
  5
B0
331
D0
  5
D7
331
A4
  5
AB
331
33
  5
39
331
6A
  5
70
331
1FB
  5
23D
331
23A
  5
13D
331
14E
  5
18F
331
18D
  5
1CE
331
D8
  5
DF
331
117
  5
156
331
1C4
  5
206
331
281
  5
266
331
24C
  5
2AF
331
72
  5
78
331
289
  5
150
331
20B
  5
250
331
242
  5
115
331
156
  5
197
331
195
  5
1D6
331
E0
  5
E7
331
11F
  5
15E
331
1CC
  5
20E
331
291
  5
144
331
1D4
  5
216
331
213
  5
25C
331
127
  5
166
331
15E
  5
19F
331
E8
  5
EF
331
19D
  5
1DE
331
252
  5
2AA
331
25A
  5
292
331
1DC
  5
21E
331
166
  5
1A7
331
7A
  5
80
331
3B
  5
41
331
43
  5
49
331
82
  5
88
331
F0
  5
F7
331
4B
  5
51
331
8A
  5
90
331
B1
  5
B8
331
21B
  5
296
331
262
  5
28B
331
1A5
  5
1E7
331
1E4
  5
226
331
F8
  5
100
331
12F
  5
170
331
1C
  5
20
331
92
  5
98
331
B9
  5
C0
331
16E
  5
1AF
331
223
  5
29E
331
26A
  5
284
331
176
  5
1B7
331
1AD
  5
1EF
331
C1
  5
C8
331
100
  5
109
331
137
  5
178
331
1EC
  5
22E
331
1F4
  5
236
331
22B
  5
286
331
13F
  5
180
331
17E
  5
1BF
331
C9
  5
D0
331
108
  5
111
331
1B5
  5
1F7
331
272
  5
277
331
27A
  5
26E
331
1BD
  5
1FF
331
204
  5
248
331
147
  5
188
331
186
  5
1C7
331
233
  5
255
331
29D
  5
137
331
2A5
  5
12E
331
9A
  5
A2
331
24
  5
2A
331
5B
  5
61
331
63
  5
69
331
2AA
  5
124
331
2C
  5
32
331
6B
  5
71
331
AA
  5
B1
331
D1
  5
D8
331
A5
  5
AC
331
34
  5
3A
331
110
  5
11D
331
282
  5
267
331
1C5
  5
207
331
1FC
  5
23E
331
118
  5
157
331
14F
  5
190
331
73
  5
79
331
24D
  5
2B0
331
D9
  5
E0
331
18E
  5
1CF
331
23B
  5
133
331
243
  5
116
331
28A
  5
14C
331
196
  5
1D7
331
1CD
  5
20F
331
E1
  5
E8
331
120
  5
15F
331
157
  5
198
331
20C
  5
251
331
214
  5
25D
331
253
  5
2A7
331
15F
  5
1A0
331
E9
  5
F0
331
19E
  5
1DF
331
1D5
  5
217
331
292
  5
141
331
25B
  5
293
331
167
  5
1A8
331
1DD
  5
21F
331
3C
  5
42
331
7B
  5
81
331
44
  5
4A
331
83
  5
89
331
8B
  5
91
331
B2
  5
B9
331
F1
  5
F8
331
4C
  5
52
331
128
  5
169
331
1E5
  5
227
331
21C
  5
297
331
130
  5
171
331
16F
  5
1B0
331
54
  5
5A
331
93
  5
99
331
BA
  5
C1
331
1D
  5
23
331
F9
  5
101
331
1A6
  5
1E8
331
263
  5
28C
331
26B
  5
27F
331
1AE
  5
1F0
331
1ED
  5
22F
331
101
  5
10A
331
138
  5
179
331
C2
  5
C9
331
177
  5
1B8
331
224
  5
29F
331
22C
  5
27E
331
273
  5
278
331
1B6
  5
1F8
331
1F5
  5
237
331
109
  5
112
331
140
  5
181
331
CA
  5
D1
331
17F
  5
1C0
331
234
  5
256
331
27B
  5
26F
331
187
  5
1C8
331
1BE
  5
200
331
205
  5
249
331
29E
  5
138
331
2A6
  5
12A
331
5C
  5
62
331
9B
  5
A3
331
25
  5
2B
331
2D
  5
33
331
64
  5
6A
331
2AB
  5
125
331
AB
  5
B2
331
D2
  5
D9
331
111
  5
11E
331
A6
  5
AD
331
35
  5
3B
331
6C
  5
72
331
148
  5
189
331
1FD
  5
240
331
23C
  5
134
331
150
  5
191
331
18F
  5
1D0
331
74
  5
7A
331
24E
  5
2B1
331
DA
  5
E1
331
119
  5
158
331
1C6
  5
208
331
283
  5
154
331
28B
  5
149
331
1CE
  5
210
331
20D
  5
252
331
158
  5
199
331
197
  5
1D8
331
244
  5
21
331
E2
  5
E9
331
121
  5
160
331
293
  5
142
331
1D6
  5
218
331
215
  5
25E
331
160
  5
1A1
331
EA
  5
F1
331
19F
  5
1E0
331
254
  5
2A8
331
25C
  5
294
331
1DE
  5
220
331
7C
  5
82
331
3D
  5
43
331
45
  5
4B
331
84
  5
8A
331
F2
  5
F9
331
129
  5
16A
331
4D
  5
54
331
8C
  5
92
331
B3
  5
BA
331
168
  5
1A9
331
21D
  5
298
331
264
  5
287
331
170
  5
1B1
331
1A7
  5
1E9
331
FA
  5
102
331
131
  5
172
331
1E6
  5
228
331
1E
  5
24
331
55
  5
5B
331
94
  5
9A
331
BB
  5
C2
331
225
  5
2A0
331
26C
  5
280
331
178
  5
1B9
331
1AF
  5
1F1
331
C3
  5
CA
331
102
  5
10B
331
139
  5
17A
331
1EE
  5
230
331
1F6
  5
238
331
22D
  5
274
331
141
  5
182
331
180
  5
1C1
331
CB
  5
D2
331
10A
  5
117
331
1B7
  5
1F9
331
274
  5
279
331
27C
  5
26B
331
1BF
  5
201
331
206
  5
24A
331
235
  5
257
331
29F
  5
132
331
2A7
  5
127
331
9C
  5
A4
331
26
  5
2C
331
5D
  5
63
331
65
  5
6B
331
2AC
  5
126
331
2E
  5
34
331
112
  5
11F
331
149
  5
18A
331
6D
  5
73
331
AC
  5
B3
331
D3
  5
DA
331
188
  5
1C9
331
A7
  5
AE
331
36
  5
3C
331
23D
  5
135
331
284
  5
151
331
1C7
  5
209
331
1FE
  5
241
331
11A
  5
159
331
151
  5
192
331
75
  5
7B
331
24F
  5
2AC
331
DB
  5
E2
331
190
  5
1D1
331
245
  5
22
331
28C
  5
14A
331
198
  5
1D9
331
1CF
  5
211
331
E3
  5
EA
331
122
  5
161
331
159
  5
19A
331
20E
  5
253
331
216
  5
25F
331
255
  5
2A9
331
161
  5
1A2
331
EB
  5
F2
331
1D7
  5
219
331
294
  5
143
331
1DF
  5
221
331
25D
  5
28F
331
3E
  5
44
331
7D
  5
83
331
85
  5
8B
331
46
  5
4C
331
169
  5
1AA
331
1A0
  5
1E1
331
B4
  5
BB
331
8D
  5
93
331
F3
  5
FA
331
4E
  5
55
331
12A
  5
16B
331
1E7
  5
229
331
21E
  5
299
331
132
  5
173
331
171
  5
1B2
331
56
  5
5C
331
95
  5
9B
331
BC
  5
C3
331
1F
  5
25
331
FB
  5
103
331
1A8
  5
1EA
331
265
  5
288
331
26D
  5
281
331
1B0
  5
1F2
331
1EF
  5
231
331
103
  5
10C
331
13A
  5
17B
331
C4
  5
CB
331
179
  5
1BA
331
226
  5
2A1
331
22E
  5
275
331
275
  5
273
331
181
  5
1C2
331
1B8
  5
1FA
331
10B
  5
118
331
142
  5
183
331
1F7
  5
239
331
CC
  5
D3
331
236
  5
167
331
27D
  5
268
331
207
  5
24C
331
298
  5
13C
331
2A0
  5
12F
331
27
  5
2D
331
5E
  5
64
331
9D
  5
A6
331
2F
  5
35
331
66
  5
6C
331
2AD
  5
A5
331
189
  5
1CA
331
1C0
  5
202
331
AD
  5
B4
331
D4
  5
DB
331
113
  5
120
331
248
  5
1A
331
37
  5
3D
331
6E
  5
74
331
14A
  5
18B
331
1FF
  5
242
331
23E
  5
12B
331
152
  5
193
331
191
  5
1D2
331
76
  5
7C
331
DC
  5
E3
331
11B
  5
15A
331
1C8
  5
20A
331
285
  5
152
331
28D
  5
14B
331
1D0
  5
212
331
20F
  5
258
331
123
  5
162
331
15A
  5
19B
331
E4
  5
EB
331
199
  5
1DA
331
246
  5
18
331
256
  5
2A4
331
295
  5
13E
331
1D8
  5
21A
331
162
  5
1A3
331
217
  5
260
331
EC
  5
F3
331
25E
  5
290
331
2B0
  5
247
331
7E
  5
84
331
3F
  5
45
331
47
  5
4D
331
86
  5
8C
331
1A1
  5
1E2
331
1E0
  5
222
331
F4
  5
FB
331
12B
  5
16C
331
18
  5
1C
331
8E
  5
94
331
B5
  5
BC
331
16A
  5
1AB
331
21F
  5
29A
331
266
  5
289
331
172
  5
1B3
331
1A9
  5
1EB
331
96
  5
9C
331
BD
  5
C4
331
FC
  5
104
331
57
  5
5D
331
133
  5
174
331
1E8
  5
22A
331
1F0
  5
232
331
227
  5
2A2
331
17A
  5
1BB
331
1B1
  5
1F3
331
26E
  5
27D
331
C5
  5
CC
331
104
  5
10D
331
13B
  5
17C
331
200
  5
243
331
22F
  5
276
331
143
  5
184
331
182
  5
1C3
331
CD
  5
D4
331
10C
  5
119
331
1B9
  5
1FB
331
276
  5
270
331
27E
  5
269
331
237
  5
168
331
299
  5
139
331
2A1
  5
130
331
20
  5
26
331
28
  5
2E
331
5F
  5
65
331
67
  5
6D
331
2AE
  5
107
331
A1
  5
A8
331
30
  5
36
331
1C1
  5
203
331
1F8
  5
23A
331
114
  5
121
331
14B
  5
18C
331
6F
  5
75
331
249
  5
1B
331
AE
  5
B5
331
D5
  5
DC
331
18A
  5
1CB
331
23F
  5
123
331
286
  5
153
331
192
  5
1D3
331
1C9
  5
20B
331
11C
  5
15B
331
153
  5
194
331
208
  5
24D
331
77
  5
7D
331
DD
  5
E4
331
247
  5
19
331
28E
  5
146
331
19A
  5
1DB
331
1D1
  5
213
331
E5
  5
EC
331
124
  5
163
331
15B
  5
19C
331
210
  5
259
331
257
  5
2A5
331
163
  5
1A4
331
ED
  5
F4
331
1D9
  5
21B
331
296
  5
13F
331
25F
  5
291
331
38
  5
3E
331
2B1
  5
23F
331
7F
  5
85
331
87
  5
8D
331
48
  5
4E
331
1E1
  5
223
331
218
  5
261
331
12C
  5
16D
331
16B
  5
1AC
331
8F
  5
95
331
B6
  5
BD
331
F5
  5
FC
331
1A2
  5
1E3
331
19
  5
1D
331
50
  5
57
331
267
  5
285
331
1E9
  5
22B
331
220
  5
29B
331
134
  5
175
331
173
  5
1B4
331
97
  5
9D
331
BE
  5
C5
331
FD
  5
105
331
1AA
  5
1EC
331
26F
  5
27A
331
1B2
  5
1F4
331
1F1
  5
233
331
105
  5
10E
331
13C
  5
17D
331
C6
  5
CD
331
17B
  5
1BC
331
228
  5
2AB
331
230
  5
26C
331
277
  5
271
331
183
  5
1C4
331
1BA
  5
1FC
331
CE
  5
D5
331
10D
  5
11A
331
144
  5
185
331
201
  5
244
331
27F
  5
26A
331
29A
  5
13A
331
2A2
  5
131
331
58
  5
5E
331
21
  5
27
331
29
  5
2F
331
60
  5
66
331
9F
  5
A7
331
2AF
  5
FF
331
31
  5
37
331
68
  5
6E
331
A2
  5
A9
331
1F9
  5
23B
331
238
  5
14D
331
18B
  5
1CC
331
1C2
  5
204
331
AF
  5
B6
331
D6
  5
DD
331
115
  5
122
331
24A
  5
2B2
331
70
  5
76
331
14C
  5
18D
331
209
  5
24E
331
240
  5
113
331
154
  5
195
331
193
  5
1D4
331
DE
  5
E5
331
11D
  5
15C
331
1CA
  5
20C
331
287
  5
14E
331
28F
  5
147
331
1D2
  5
214
331
211
  5
25A
331
125
  5
164
331
15C
  5
19D
331
E6
  5
ED
331
19B
  5
1DC
331
250
  5
2AD
331
258
  5
2A6
331
1DA
  5
21C
331
297
  5
140
331
164
  5
1A5
331
EE
  5
F5
  0
LAYOUT
  5
2B4
102
{ACAD_XDICTIONARY
360
34C
102
}
102
{ACAD_REACTORS
330
2B5
102
}
330
2B5
100
AcDbPlotSettings
  1

  2
CutePDF Writer
  4
A4
  6
10-ele
 40
3.174999952316282
 41
3.174999952316282
 42
3.175003051757812
 43
3.17498779296875
 44
209.8886566162109
 45
297.0530090332031
 46
-0.2306731939318922
 47
5.151510643959028
 48
-3590.05721834475
 49
-20227.95241276194
140
6609.942781655282
141
-6207.952412761944
142
1.0
143
50.0
 70
 11940
 72
     1
 73
     0
 74
     4
  7
monochrome_140.ctb
 75
     0
147
0.0145177356356731
148
3590.05721834475
149
20227.95241276194
100
AcDbLayout
  1
Model
 70
     1
 71
     0
 10
0.0
 20
0.0
 11
12.0
 21
9.0
 12
0.0
 22
0.0
 32
0.0
 14
0.0
 24
0.0
 34
0.0
 15
0.0
 25
0.0
 35
0.0
146
0.0
 13
0.0
 23
0.0
 33
0.0
 16
1.0
 26
0.0
 36
0.0
 17
0.0
 27
1.0
 37
0.0
 76
     0
330
2
331
2CD
1001
ACAD_PSEXT
1000
CutePDF Writer
1000
CutePDF Writer
1000
CPW2:
1000

1070
     0
  0
LAYOUT
  5
2BD
102
{ACAD_XDICTIONARY
360
2BE
102
}
102
{ACAD_REACTORS
330
2B5
102
}
330
2B5
100
AcDbPlotSettings
  1

  2
\\KOMP-NR-72\HP LaserJet 1200 Series PCL
  4
A4
  6

 40
6.805083274841307
 41
5.027085781097412
 42
6.805068969726562
 43
5.027069091796875
 44
209.9733276367186
 45
296.9683227539062
 46
0.0
 47
0.0
 48
0.0
 49
0.0
140
0.0
141
0.0
142
1.0
143
1.0
 70
   688
 72
     1
 73
     0
 74
     5
  7
monochrome_140.ctb
 75
    16
147
1.0
148
0.0
149
0.0
100
AcDbLayout
  1
Poddasze
 70
     0
 71
     1
 10
-6.805083274841307
 20
-5.027085781097412
 11
203.1682443618775
 21
291.9412369728089
 12
5931.669543547489
 22
-50.0
 32
10705.17123084718
 14
-0.7963446452747009
 24
-0.8075380466295881
 34
-0.0015258207003583
 15
209.2128431109218
 25
296.2154446811023
 35
0.0000000349246037
146
0.0
 13
0.0
 23
0.0
 33
0.0
 16
1.0
 26
0.0
 36
0.0
 17
0.0
 27
1.0
 37
0.0
 76
     0
330
2BA
1001
ACAD_PSEXT
1000
\\KOMP-NR-72\HP LaserJet 1200 Series PCL
1000
HP LaserJet 1200 Series PCL
1000
\\KOMP-NR-72
1000

1070
     0
  0
MATERIAL
  5
2E1
102
{ACAD_XDICTIONARY
360
313
102
}
102
{ACAD_REACTORS
330
D
102
}
330
D
100
AcDbMaterial
  1
ByBlock
 73
     1
 78
     1
172
     1
176
     1
270
     1
274
     1
  0
MATERIAL
  5
2E0
102
{ACAD_XDICTIONARY
360
311
102
}
102
{ACAD_REACTORS
330
D
102
}
330
D
100
AcDbMaterial
  1
ByLayer
 73
     1
 78
     1
172
     1
176
     1
270
     1
274
     1
  0
MATERIAL
  5
C
102
{ACAD_XDICTIONARY
360
30C
102
}
102
{ACAD_REACTORS
330
D
102
}
330
D
100
AcDbMaterial
  1
Global
 73
     1
 78
     1
172
     1
176
     1
270
     1
274
     1
  0
MLEADERSTYLE
  5
328
102
{ACAD_REACTORS
330
327
102
}
330
327
100
AcDbMLeaderStyle
170
     2
171
     1
172
     0
 90
        2
 40
0.0
 41
0.0
173
     1
 91
-1056964608
340
2C8
 92
       -2
290
     1
 42
0.09
291
     1
 43
0.36
  3
Standard
 44
0.18
300

342
2C5
174
     1
178
     6
175
     1
176
     0
 93
-1056964608
 45
0.18
292
     0
297
     0
 46
0.18
 94
-1056964608
 47
1.0
 49
1.0
140
1.0
293
     1
141
0.0
294
     1
177
     0
142
1.0
295
     0
296
     0
143
0.125
1001
ACAD_MLEADERVER
1070
     2
  0
MLINESTYLE
  5
2E5
102
{ACAD_REACTORS
330
2DE
102
}
330
2DE
100
AcDbMlineStyle
  2
STANDARD
 70
     0
  3

 62
     0
 51
90.0
 52
90.0
 71
     2
 49
0.5
 62
   256
  6
BYLAYER
 49
-0.5
 62
   256
  6
BYLAYER
  0
ACDBPLACEHOLDER
  5
9E
102
{ACAD_REACTORS
330
A
102
}
330
A
  0
ACDBPLACEHOLDER
  5
53
102
{ACAD_REACTORS
330
A
102
}
330
A
  0
ACDBPLACEHOLDER
  5
9
102
{ACAD_REACTORS
330
A
102
}
330
A
  0
SCALE
  5
2EA
102
{ACAD_REACTORS
330
2E3
102
}
330
2E3
100
AcDbScale
 70
     0
300
1:1
140
1.0
141
0.1
290
     0
  0
SCALE
  5
2EB
102
{ACAD_REACTORS
330
2E3
102
}
330
2E3
100
AcDbScale
 70
     0
300
1:2
140
1.0
141
0.2
290
     0
  0
SCALE
  5
2EC
102
{ACAD_REACTORS
330
2E3
102
}
330
2E3
100
AcDbScale
 70
     0
300
1:2.5
140
1.0
141
0.25
290
     0
  0
SCALE
  5
2ED
102
{ACAD_REACTORS
330
2E3
102
}
330
2E3
100
AcDbScale
 70
     0
300
1:5
140
1.0
141
0.5
290
     0
  0
SCALE
  5
2EE
102
{ACAD_REACTORS
330
2E3
102
}
330
2E3
100
AcDbScale
 70
     0
300
1:7.5
140
1.0
141
0.75
290
     0
  0
SCALE
  5
2EF
102
{ACAD_REACTORS
330
2E3
102
}
330
2E3
100
AcDbScale
 70
     0
300
1:10
140
1.0
141
1.0
290
     1
  0
SCALE
  5
2F0
102
{ACAD_REACTORS
330
2E3
102
}
330
2E3
100
AcDbScale
 70
     0
300
1:20
140
1.0
141
2.0
290
     0
  0
SCALE
  5
2F1
102
{ACAD_REACTORS
330
2E3
102
}
330
2E3
100
AcDbScale
 70
     0
300
1:25
140
1.0
141
2.5
290
     0
  0
SCALE
  5
2F2
102
{ACAD_REACTORS
330
2E3
102
}
330
2E3
100
AcDbScale
 70
     0
300
1:50
140
1.0
141
5.0
290
     0
  0
SCALE
  5
2F3
102
{ACAD_REACTORS
330
2E3
102
}
330
2E3
100
AcDbScale
 70
     0
300
1:75
140
1.0
141
7.5
290
     0
  0
SCALE
  5
2F4
102
{ACAD_REACTORS
330
2E3
102
}
330
2E3
100
AcDbScale
 70
     0
300
1:100
140
1.0
141
10.0
290
     0
  0
SCALE
  5
2F5
102
{ACAD_REACTORS
330
2E3
102
}
330
2E3
100
AcDbScale
 70
     0
300
1:150
140
1.0
141
15.0
290
     0
  0
SCALE
  5
2F6
102
{ACAD_REACTORS
330
2E3
102
}
330
2E3
100
AcDbScale
 70
     0
300
1:200
140
1.0
141
20.0
290
     0
  0
SCALE
  5
2F7
102
{ACAD_REACTORS
330
2E3
102
}
330
2E3
100
AcDbScale
 70
     0
300
1:250
140
1.0
141
25.0
290
     0
  0
SCALE
  5
2F8
102
{ACAD_REACTORS
330
2E3
102
}
330
2E3
100
AcDbScale
 70
     0
300
1:500
140
1.0
141
50.0
290
     0
  0
SCALE
  5
2F9
102
{ACAD_REACTORS
330
2E3
102
}
330
2E3
100
AcDbScale
 70
     0
300
1:750
140
1.0
141
75.0
290
     0
  0
SCALE
  5
2FA
102
{ACAD_REACTORS
330
2E3
102
}
330
2E3
100
AcDbScale
 70
     0
300
1:1000
140
1.0
141
100.0
290
     0
  0
SCALE
  5
2FB
102
{ACAD_REACTORS
330
2E3
102
}
330
2E3
100
AcDbScale
 70
     0
300
1:1250
140
1.0
141
125.0
290
     0
  0
SCALE
  5
2FC
102
{ACAD_REACTORS
330
2E3
102
}
330
2E3
100
AcDbScale
 70
     0
300
1:2000
140
1.0
141
200.0
290
     0
  0
SCALE
  5
2FD
102
{ACAD_REACTORS
330
2E3
102
}
330
2E3
100
AcDbScale
 70
     0
300
1:2500
140
1.0
141
250.0
290
     0
  0
SCALE
  5
2FE
102
{ACAD_REACTORS
330
2E3
102
}
330
2E3
100
AcDbScale
 70
     0
300
1:5000
140
1.0
141
500.0
290
     0
  0
TABLESTYLE
  5
2E6
102
{ACAD_XDICTIONARY
360
2E7
102
}
102
{ACAD_REACTORS
330
2E4
102
}
330
2E4
100
AcDbTableStyle
  3
Standard
 70
     0
 71
     0
 40
0.06
 41
0.06
280
     0
281
     0
  7
STANDARD
140
0.18
170
     2
 62
     0
 63
     7
283
     0
274
    -2
284
     1
 64
     0
275
    -2
285
     1
 65
     0
276
    -2
286
     1
 66
     0
277
    -2
287
     1
 67
     0
278
    -2
288
     1
 68
     0
279
    -2
289
     1
 69
     0
  7
STANDARD
140
0.25
170
     5
 62
     0
 63
     7
283
     0
274
    -2
284
     1
 64
     0
275
    -2
285
     1
 65
     0
276
    -2
286
     1
 66
     0
277
    -2
287
     1
 67
     0
278
    -2
288
     1
 68
     0
279
    -2
289
     1
 69
     0
  7
STANDARD
140
0.18
170
     5
 62
     0
 63
     7
283
     0
274
    -2
284
     1
 64
     0
275
    -2
285
     1
 65
     0
276
    -2
286
     1
 66
     0
277
    -2
287
     1
 67
     0
278
    -2
288
     1
 68
     0
279
    -2
289
     1
 69
     0
  0
VISUALSTYLE
  5
2B7
102
{ACAD_REACTORS
330
2B8
102
}
330
2B8
100
AcDbVisualStyle
  2
2dWireframe
 70
     4
 71
     0
 72
     2
 73
     0
 90
        0
 40
-0.6
 41
-30.0
 62
     5
 63
     7
 74
     1
 91
        4
 64
     7
 65
   257
 75
     1
175
     1
 42
1.0
 92
        0
 66
   257
 43
1.0
 76
     1
 77
     6
 78
     2
 67
     7
 79
     5
170
     0
171
     0
290
     0
174
     0
 93
        1
 44
0.0
173
     0
291
     0
 45
0.0
1001
ACAD
1000
AcDbSavedByObjectVersion
1070
     0
1000
AcDbSavedByObjectVersion
1070
     0
1000
AcDbSavedByObjectVersion
1070
     0
  0
VISUALSTYLE
  5
31F
102
{ACAD_REACTORS
330
2B8
102
}
330
2B8
100
AcDbVisualStyle
  2
3D Hidden
 70
     6
 71
     1
 72
     2
 73
     2
 90
        0
 40
-0.6
 41
-30.0
 62
     5
 63
     7
 74
     2
 91
        2
 64
     7
 65
   257
 75
     2
175
     1
 42
40.0
 92
        0
 66
   257
 43
1.0
 76
     1
 77
     6
 78
     2
 67
     7
 79
     3
170
     0
171
     0
290
     0
174
     0
 93
        1
 44
0.0
173
     0
291
     0
 45
0.0
1001
ACAD
1000
AcDbSavedByObjectVersion
1070
     0
1000
AcDbSavedByObjectVersion
1070
     0
  0
VISUALSTYLE
  5
2E9
102
{ACAD_REACTORS
330
2B8
102
}
330
2B8
100
AcDbVisualStyle
  2
3dWireframe
 70
     5
 71
     0
 72
     2
 73
     0
 90
        0
 40
-0.6
 41
-30.0
 62
     5
 63
     7
 74
     1
 91
        4
 64
     7
 65
   257
 75
     1
175
     1
 42
1.0
 92
        0
 66
   257
 43
1.0
 76
     1
 77
     6
 78
     2
 67
     7
 79
     5
170
     0
171
     0
290
     0
174
     0
 93
        1
 44
0.0
173
     0
291
     0
 45
0.0
1001
ACAD
1000
AcDbSavedByObjectVersion
1070
     0
1000
AcDbSavedByObjectVersion
1070
     0
1000
AcDbSavedByObjectVersion
1070
     0
  0
VISUALSTYLE
  5
31E
102
{ACAD_REACTORS
330
2B8
102
}
330
2B8
100
AcDbVisualStyle
  2
Basic
 70
     7
 71
     1
 72
     0
 73
     1
 90
        0
 40
-0.6
 41
-30.0
 62
     5
 63
     7
 74
     0
 91
        4
 64
     7
 65
   257
 75
     1
175
     1
 42
1.0
 92
        8
 66
     7
 43
1.0
 76
     1
 77
     6
 78
     2
 67
     7
 79
     5
170
     0
171
     0
290
     0
174
     0
 93
        1
 44
0.0
173
     0
291
     1
 45
0.0
1001
ACAD
1000
AcDbSavedByObjectVersion
1070
     0
1000
AcDbSavedByObjectVersion
1070
     0
  0
VISUALSTYLE
  5
322
102
{ACAD_REACTORS
330
2B8
102
}
330
2B8
100
AcDbVisualStyle
  2
Brighten
 70
    12
 71
     2
 72
     2
 73
     0
 90
        0
 40
-0.6
 41
-30.0
 62
     5
 63
     7
 74
     1
 91
        4
 64
     7
 65
   257
 75
     1
175
     1
 42
1.0
 92
        8
 66
     7
 43
1.0
 76
     1
 77
     6
 78
     2
 67
     7
 79
     5
170
     0
171
     0
290
     0
174
     0
 93
        1
 44
50.0
173
     0
291
     1
 45
0.0
1001
ACAD
1000
AcDbSavedByObjectVersion
1070
     0
1000
AcDbSavedByObjectVersion
1070
     0
  0
VISUALSTYLE
  5
326
102
{ACAD_REACTORS
330
2B8
102
}
330
2B8
100
AcDbVisualStyle
  2
ColorChange
 70
    16
 71
     2
 72
     2
 73
     3
 90
        0
 40
-0.6
 41
-30.0
 62
     5
 63
     8
 74
     1
 91
        4
 64
     7
 65
   257
 75
     1
175
     1
 42
1.0
 92
        8
 66
     8
 43
1.0
 76
     1
 77
     6
 78
     2
 67
     7
 79
     5
170
     0
171
     0
290
     0
174
     0
 93
        1
 44
0.0
173
     0
291
     1
 45
0.0
1001
ACAD
1000
AcDbSavedByObjectVersion
1070
     0
1000
AcDbSavedByObjectVersion
1070
     0
  0
VISUALSTYLE
  5
320
102
{ACAD_REACTORS
330
2B8
102
}
330
2B8
100
AcDbVisualStyle
  2
Conceptual
 70
     9
 71
     3
 72
     2
 73
     0
 90
        0
 40
-0.6
 41
-30.0
 62
     5
 63
     7
 74
     2
 91
        2
 64
     7
 65
   257
 75
     1
175
     1
 42
40.0
 92
        8
 66
     7
 43
1.0
 76
     1
 77
     6
 78
     2
 67
     7
 79
     3
170
     0
171
     0
290
     0
174
     0
 93
        1
 44
0.0
173
     0
291
     0
 45
0.0
1001
ACAD
1000
AcDbSavedByObjectVersion
1070
     0
1000
AcDbSavedByObjectVersion
1070
     0
  0
VISUALSTYLE
  5
321
102
{ACAD_REACTORS
330
2B8
102
}
330
2B8
100
AcDbVisualStyle
  2
Dim
 70
    11
 71
     2
 72
     2
 73
     0
 90
        0
 40
-0.6
 41
-30.0
 62
     5
 63
     7
 74
     1
 91
        4
 64
     7
 65
   257
 75
     1
175
     1
 42
1.0
 92
        8
 66
     7
 43
1.0
 76
     1
 77
     6
 78
     2
 67
     7
 79
     5
170
     0
171
     0
290
     0
174
     0
 93
        1
 44
-50.0
173
     0
291
     1
 45
0.0
1001
ACAD
1000
AcDbSavedByObjectVersion
1070
     0
1000
AcDbSavedByObjectVersion
1070
     0
  0
VISUALSTYLE
  5
325
102
{ACAD_REACTORS
330
2B8
102
}
330
2B8
100
AcDbVisualStyle
  2
Facepattern
 70
    15
 71
     2
 72
     2
 73
     0
 90
        0
 40
-0.6
 41
-30.0
 62
     5
 63
     7
 74
     1
 91
        4
 64
     7
 65
   257
 75
     1
175
     1
 42
1.0
 92
        8
 66
     7
 43
1.0
 76
     1
 77
     6
 78
     2
 67
     7
 79
     5
170
     0
171
     0
290
     0
174
     0
 93
        1
 44
0.0
173
     0
291
     1
 45
0.0
1001
ACAD
1000
AcDbSavedByObjectVersion
1070
     0
1000
AcDbSavedByObjectVersion
1070
     0
  0
VISUALSTYLE
  5
31A
102
{ACAD_REACTORS
330
2B8
102
}
330
2B8
100
AcDbVisualStyle
  2
Flat
 70
     0
 71
     2
 72
     1
 73
     1
 90
        2
 40
-0.6
 41
30.0
 62
     5
 63
     7
 74
     0
 91
        4
 64
     7
 65
   257
 75
     1
175
     1
 42
1.0
 92
        8
 66
     7
 43
1.0
 76
     1
 77
     6
 78
     2
 67
     7
 79
     5
170
     0
171
     0
290
     0
174
     0
 93
       13
 44
0.0
173
     0
291
     1
 45
0.0
1001
ACAD
1000
AcDbSavedByObjectVersion
1070
     0
1000
AcDbSavedByObjectVersion
1070
     0
  0
VISUALSTYLE
  5
31B
102
{ACAD_REACTORS
330
2B8
102
}
330
2B8
100
AcDbVisualStyle
  2
FlatWithEdges
 70
     1
 71
     2
 72
     1
 73
     1
 90
        2
 40
-0.6
 41
30.0
 62
     5
 63
     7
 74
     1
 91
        4
 64
     7
 65
   257
 75
     1
175
     1
 42
1.0
 92
        0
 66
   257
 43
1.0
 76
     1
 77
     6
 78
     2
 67
     7
 79
     5
170
     0
171
     0
290
     0
174
     0
 93
       13
 44
0.0
173
     0
291
     1
 45
0.0
1001
ACAD
1000
AcDbSavedByObjectVersion
1070
     0
1000
AcDbSavedByObjectVersion
1070
     0
  0
VISUALSTYLE
  5
31C
102
{ACAD_REACTORS
330
2B8
102
}
330
2B8
100
AcDbVisualStyle
  2
Gouraud
 70
     2
 71
     2
 72
     2
 73
     1
 90
        2
 40
-0.6
 41
30.0
 62
     5
 63
     7
 74
     0
 91
        4
 64
     7
 65
   257
 75
     1
175
     1
 42
1.0
 92
        0
 66
     7
 43
1.0
 76
     1
 77
     6
 78
     2
 67
     7
 79
     5
170
     0
171
     0
290
     0
174
     0
 93
       13
 44
0.0
173
     0
291
     1
 45
0.0
1001
ACAD
1000
AcDbSavedByObjectVersion
1070
     0
1000
AcDbSavedByObjectVersion
1070
     0
  0
VISUALSTYLE
  5
31D
102
{ACAD_REACTORS
330
2B8
102
}
330
2B8
100
AcDbVisualStyle
  2
GouraudWithEdges
 70
     3
 71
     2
 72
     2
 73
     1
 90
        2
 40
-0.6
 41
30.0
 62
     5
 63
     7
 74
     1
 91
        4
 64
     7
 65
   257
 75
     1
175
     1
 42
1.0
 92
        0
 66
   257
 43
1.0
 76
     1
 77
     6
 78
     2
 67
     7
 79
     5
170
     0
171
     0
290
     0
174
     0
 93
       13
 44
0.0
173
     0
291
     1
 45
0.0
1001
ACAD
1000
AcDbSavedByObjectVersion
1070
     0
1000
AcDbSavedByObjectVersion
1070
     0
  0
VISUALSTYLE
  5
324
102
{ACAD_REACTORS
330
2B8
102
}
330
2B8
100
AcDbVisualStyle
  2
Linepattern
 70
    14
 71
     2
 72
     2
 73
     0
 90
        0
 40
-0.6
 41
-30.0
 62
     5
 63
     7
 74
     1
 91
        4
 64
     7
 65
   257
 75
     7
175
     7
 42
1.0
 92
        8
 66
     7
 43
1.0
 76
     1
 77
     6
 78
     2
 67
     7
 79
     5
170
     0
171
     0
290
     0
174
     0
 93
        1
 44
0.0
173
     0
291
     1
 45
0.0
1001
ACAD
1000
AcDbSavedByObjectVersion
1070
     0
1000
AcDbSavedByObjectVersion
1070
     0
  0
VISUALSTYLE
  5
2E8
102
{ACAD_REACTORS
330
2B8
102
}
330
2B8
100
AcDbVisualStyle
  2
Realistic
 70
     8
 71
     2
 72
     2
 73
     0
 90
        0
 40
-0.6
 41
-30.0
 62
     5
 63
     7
 74
     1
 91
        0
 64
     7
 65
   257
 75
     1
175
     1
 42
1.0
 92
        8
 66
     8
 43
1.0
 76
     1
 77
     6
 78
     2
 67
     7
 79
     5
170
     0
171
     0
290
     0
174
     0
 93
       13
 44
0.0
173
     0
291
     0
 45
0.0
1001
ACAD
1000
AcDbSavedByObjectVersion
1070
     0
1000
AcDbSavedByObjectVersion
1070
     0
1000
AcDbSavedByObjectVersion
1070
     0
  0
VISUALSTYLE
  5
323
102
{ACAD_REACTORS
330
2B8
102
}
330
2B8
100
AcDbVisualStyle
  2
Thicken
 70
    13
 71
     2
 72
     2
 73
     0
 90
        0
 40
-0.6
 41
-30.0
 62
     5
 63
     7
 74
     1
 91
        4
 64
     7
 65
   257
 75
     1
175
     1
 42
1.0
 92
       12
 66
     7
 43
1.0
 76
     1
 77
     6
 78
     2
 67
     7
 79
     5
170
     0
171
     0
290
     0
174
     0
 93
        1
 44
0.0
173
     0
291
     1
 45
0.0
1001
ACAD
1000
AcDbSavedByObjectVersion
1070
     0
1000
AcDbSavedByObjectVersion
1070
     0
  0
DICTIONARYVAR
  5
304
102
{ACAD_REACTORS
330
300
102
}
330
300
100
DictionaryVariables
280
     0
  1
1:1
  0
DICTIONARYVAR
  5
302
102
{ACAD_REACTORS
330
300
102
}
330
300
100
DictionaryVariables
280
     0
  1
STANDARD
  0
DICTIONARYVAR
  5
301
102
{ACAD_REACTORS
330
300
102
}
330
300
100
DictionaryVariables
280
     0
  1
STANDARD
  0
DICTIONARYVAR
  5
308
102
{ACAD_REACTORS
330
300
102
}
330
300
100
DictionaryVariables
280
     0
  1
1
  0
DICTIONARYVAR
  5
307
102
{ACAD_REACTORS
330
300
102
}
330
300
100
DictionaryVariables
280
     0
  1
1
  0
DICTIONARYVAR
  5
306
102
{ACAD_REACTORS
330
300
102
}
330
300
100
DictionaryVariables
280
     0
  1
0
  0
DICTIONARYVAR
  5
303
102
{ACAD_REACTORS
330
300
102
}
330
300
100
DictionaryVariables
280
     0
  1
1
  0
DICTIONARYVAR
  5
305
102
{ACAD_REACTORS
330
300
102
}
330
300
100
DictionaryVariables
280
     0
  1
127
  0
XRECORD
  5
33B
102
{ACAD_REACTORS
330
339
102
}
330
339
100
AcDbXrecord
280
     1
  0
DICTIONARY
  5
34C
330
2B4
100
AcDbDictionary
280
     1
281
     1
  3
ACAD_XREC_ROUNDTRIP
360
34D
  0
DICTIONARY
  5
2BE
330
2BD
100
AcDbDictionary
280
     1
281
     1
  3
ACAD_XREC_ROUNDTRIP
360
34E
  3
ADSK_XREC_LAYOUTTHUMBNAIL
360
2BF
  0
DICTIONARY
  5
313
330
2E1
100
AcDbDictionary
280
     1
281
     1
  3
ACAD_XREC_ROUNDTRIP
360
314
  0
DICTIONARY
  5
311
330
2E0
100
AcDbDictionary
280
     1
281
     1
  3
ACAD_XREC_ROUNDTRIP
360
312
  0
DICTIONARY
  5
30C
330
C
100
AcDbDictionary
280
     1
281
     1
  3
ACAD_XREC_ROUNDTRIP
360
30D
  0
DICTIONARY
  5
2E7
330
2E6
100
AcDbDictionary
280
     1
281
     1
  3
ACAD_ROUNDTRIP_2008_TABLESTYLE_CELLSTYLEMAP
360
34A
  3
ACAD_XREC_ROUNDTRIP
360
34F
  0
XRECORD
  5
34D
102
{ACAD_REACTORS
330
34C
102
}
330
34C
100
AcDbXrecord
280
     1
102
SHADEPLOT
 70
     1
102
SHADEPLOTRESLEVEL
 70
     2
102
SHADEPLOTCUSTOMDPI
 70
   300
  0
XRECORD
  5
34E
102
{ACAD_REACTORS
330
2BE
102
}
330
2BE
100
AcDbXrecord
280
     1
102
SHADEPLOT
 70
     1
102
SHADEPLOTRESLEVEL
 70
     4
102
SHADEPLOTCUSTOMDPI
 70
   600
  0
XRECORD
  5
2BF
102
{ACAD_REACTORS
330
2BE
102
}
330
2BE
100
AcDbXrecord
280
     1
310
28000000630000008C0000000100080000000000B0360000000000000000000000010000000000000000000000000000FFFFFF000000000000000000000000000000000000000000000000000000000000000000330000006600000099000000CC000000FF00000000330000333300006633000099330000CC330000FF3300
310
0000660000336600006666000099660000CC660000FF66000000990000339900006699000099990000CC990000FF99000000CC000033CC000066CC000099CC0000CCCC0000FFCC000000FF000033FF000066FF000099FF0000CCFF0000FFFF000000003300330033006600330099003300CC003300FF003300003333003333
310
33006633330099333300CC333300FF33330000663300336633006666330099663300CC663300FF66330000993300339933006699330099993300CC993300FF99330000CC330033CC330066CC330099CC3300CCCC3300FFCC330000FF330033FF330066FF330099FF3300CCFF3300FFFF330000006600330066006600660099
310
006600CC006600FF00660000336600333366006633660099336600CC336600FF33660000666600336666006666660099666600CC666600FF66660000996600339966006699660099996600CC996600FF99660000CC660033CC660066CC660099CC6600CCCC6600FFCC660000FF660033FF660066FF660099FF6600CCFF6600
310
FFFF660000009900330099006600990099009900CC009900FF00990000339900333399006633990099339900CC339900FF33990000669900336699006666990099669900CC669900FF66990000999900339999006699990099999900CC999900FF99990000CC990033CC990066CC990099CC9900CCCC9900FFCC990000FF99
310
0033FF990066FF990099FF9900CCFF9900FFFF99000000CC003300CC006600CC009900CC00CC00CC00FF00CC000033CC003333CC006633CC009933CC00CC33CC00FF33CC000066CC003366CC006666CC009966CC00CC66CC00FF66CC000099CC003399CC006699CC009999CC00CC99CC00FF99CC0000CCCC0033CCCC0066CC
310
CC0099CCCC00CCCCCC00FFCCCC0000FFCC0033FFCC0066FFCC0099FFCC00CCFFCC00FFFFCC000000FF003300FF006600FF009900FF00CC00FF00FF00FF000033FF003333FF006633FF009933FF00CC33FF00FF33FF000066FF003366FF006666FF009966FF00CC66FF00FF66FF000099FF003399FF006699FF009999FF00CC
310
99FF00FF99FF0000CCFF0033CCFF0066CCFF0099CCFF00CCCCFF00FFCCFF0000FFFF0033FFFF0066FFFF0099FFFF00CCFFFF00FFFFFF00000000000D0D0D001A1A1A00282828003535350043434300505050005D5D5D006B6B6B00787878008686860093939300A1A1A100AEAEAE00BBBBBB00C9C9C900D6D6D600E4E4E400
310
F1F1F100FFFFFF0000000000000000000000000000000000000000000000000000000000000000000000000000000000F5F5F5F5F5F5F5F5F5F5F5F5F5F5F5F5F5F5F5F5F5F5F5F5F5F5F5F5F5F5F5F5F5F5F5F5F5F5F5F5F5F5F5F5F5F5F5F5F5F5F5F5F5F5F5F5F5F5F5F5F5F5F5F5F5F5F5F5F5F5F5F5F5F5F5F5F5F5F5
310
F5F5F5F5F5F5F5F5F5F5F5F5F5F5F5F5F5F5F5F500F5E2E2E2E2E2E2E2E2E2E2E2E2E2E2E2E2E2E2E2E2E2E2E2E2E2E2E2E2E2E2E2E2E2E2E2E2E2E2E2E2E2E2E2E2E2E2E2E2E2E2E2E2E2E2E2E2E2E2E2E2E2E2E2E2E2E2E2E2E2E2E2E2E2E2E2E2E2E2E2E2E2E2E2E2E2E2E2E2E2E2E2E2E2E2E2E2E2E244F5E2E2ECECEC
310
ECECECECECECECECECECECECECECECECECECECECECECECECECECECECECECECECECECECECECECECECECECECECECECECECECECECECECECECECECECECECECECECECECECECECECECECECECECECECECECECECECECECECECECECECECECECECEC44F5E2E2ECF5F5F5F5F5F5F5F5E2E2E2E2E2E2E2E2F5F5F5F5F5F5F5F5F5F5F5F5F5
310
F5F5E2E2E2E2E2E2E2E2F5F5F5F5F5F5F5F5F5F5F5F5F5F5E2E2E2E2E2E2E2E2F5F5F5F5F5F5F5F5F5F5F5F5F5F5F5E2E2E2E2E2E2E2E2F5F5F5F5F5F5F5F5E2E2E200F5E2E2ECF5E2E2E2E2E2E2E2E2E2E2E2E2E2E2E2E2E2E2E2E2E2E2E2E2E2E2E2E2E2E2E2E2E2E2E2E2E2E2E2E2E2E2E2E2E2E2E2E2E2E2E2E2E2E2E2
310
E2E2E2E2E2E2E2E2E2E2E2E2E2E2E2E2E2E2E2E2E2E2E2E2E2E2E2E2E2E2E2E2E2E2E2F5E2E2E243F5E2E2ECF5E2E2E2E2E2E2E2E2E2E2E2E2E2E2E2E2E2E2E2E2E2E2E2E2E2E2E2E2E2E2E2E2E2E2E2E2E2E2E2E2E2E2E2E2E2E2E2E2E2E2E2E2E2E2E2E2E2E2E2E2E2E2E2E2E2E2E2E2E2E2E2E2E2E2E2E2E2E2E2E2E2E2
310
E2E2E2E2E2E2E2E2F5E2E2E244F5E2E2ECF5E2E2E2E2E2E2E2E2E2E2E2E2E2E2E2E2E2E2E2E2E2E2E2E2E2E2E2E2E2E2E2E2E2E2E2E2E2E2E2E2E2E2E2E2E2E2E2E2E2E2E2E2E2E2E2E2E2E2E2E2E2E2E2E2E2E2E2E2E2E2E2E2E2E2E2E2E2E2E2E2E2E2E2E2E2E2E2E2E2E2F5E2E2E200F5E2E2ECF5E2E2E2E2ECECECECEC
310
ECECECECECECECECECECECECECECECECECECECECECECECECECECECECECECECECECECECECECECECECECECECECECECECECECECECECECECECECECECECECECECECECECECECECECECECECECECECECECECECECECECECECE244F5E2E2ECF5E2E2E2E2ECE2E2E2E2E2E2E2E2E2E2E2E2E2E2E2E2E2E2E2E2E2E2E2E2E2E2E2E2E2E2E2
310
E2E2E2E2E2E2E2E2E2E2E2E2E2E2E2E2E2E2E2E2E2E2E2E2E2E2E2E2E2E2E2E2E2E2E2E2E2E2E2E2E2E2E2E2E2E2E2E2E2E2E2E2E2E2F5E2ECE243F5E2E2ECF5E2E2E2E2ECE2E2E2E2E2E2E2E2E2E2E2E2E2E2E2E2E2E2E2E2E2E2E2E2E2E2E2E2E2E2E2E2E2E2E2E2E2E2E2E2E2E2E2E2E2E2E2E2E2E2E2E2E2E2E2E2E2E2
310
E2E2E2E2E2E2E2E2E2E2E2E2E2E2E2E2E2E2E2E2E2E2E2E2E2E2E2F5E2ECE200F5E2E2ECF5E2E2E2E2ECE2E2E2E2E2E2E2E2E2E2E2E2E2E2E2E2E2E2E2E2E2E2E2E2E2E2E2E2E2E2E2E2E2E2E2E2E2E2E2E2E2E2E2E2E2E2E2E2E2E2E2E2E2E2E2E2E2E2E2E2E2E2E2E2E2E2E2E2E2E2E2E2E2E2E2E2E2E2E2E2E2E2E2E2E2
310
F5E2ECE244F5E2E2ECF5E2E2E2E2ECE2E2E2E2E2E2E2E2E2E2E2E2E2E2E2E2E2E2E2E2E2E2E2E2E2E2E2E2E2E2E2E2E2E2E2E2E2E2E2E2E2E2E2E2E2E2E2E2E2E2E2E2E2E2E2E2E2E2E2E2E2E2E2E2E2E2E2E2E2E2E2E2E2E2E2E2E2E2E2E2E2E2E2E2E2F5E2ECE2C1F5E2E2ECE2E2E2E2E2ECE2E2E2E2E2E2E2E2E2E2E2E2
310
E2E2E2E2E2E2E2E2E2E2E2E2E2E2E2E2E2E2E2E2E2E2E2E2E2E2E2E2E2E2E2E2E2E2E2E2E2E2E2E2E2E2E2E2E2E2E2E2E2E2E2E2E2E2E2E2E2E2E2E2E2E2E2E2E2E2E2E2E2E2E2E2E2E2E2ECE200F5E2E2ECE2E2E2E2E2ECE2E2E2E2E2E2E2E2E2E2E2E2E2E2E2E2E2E2E2E2E2E2E2E2E2E2E2E2E2E2E2E2E2E2E2E2E2E2E2
310
E2E2E2E2E2E2E2E2E2E2E2E2E2E2E2E2E2E2E2E2E2E2E2E2E2E2E2E2E2E2E2E2E2E2E2E2E2E2E2E2E2E2E2E2E2E2E2E2ECE242F5E2E2ECE2E2E2E2E2ECE2E2E2E2E2E2E2E2E2E2E2E2E2E2E2E2E2E2E2E2E2E2E2E2E2E2E2E2E2E2E2E2E2E2E2E2E2E2E2E2E2E2E2E2E2E2E2E2E2E2E2E2E2E2E2E2E2E2E2E2E2E2E2E2E2E2
310
E2E2E2E2E2E2E2E2E2E2E2E2E2E2E2E2E2E2E2E2E2ECE244F5E2E2ECE2E2E2E2E2ECE2E2E2E2E2E2E2E2E2E2E2E2E2E2E2E2E2E2E2E2E2E2E2E2E2E2E2E2E2E2E2E2E2E2E2E2E2E2E2E2E2E2E2E2E2E2E2E2E2E2E2E2E2E2E2E2E2E2E2E2E2E2E2E2E2E2E2E2E2E2E2E2E2E2E2E2E2E2E2E2E2E2E2E2E2E2E2ECE240F5E2E2
310
ECE2E2E2E2E2ECE2E2E2E2E2E2E2E2E2E2E2E2E2E2E2E2E2E2E2E2E2E2E2E2E2E2E2E2E2E2E2E2E2E2E2E2E2E2E2E2E2E2E2E2E2E2E2E2E2E2E2E2E2E2E2E2E2E2E2E2E2E2E2E2E2E2E2E2E2E2E2E2E2E2E2E2E2E2E2E2E2E2E2E2E2E2E2ECE200F5E2E2ECE2E2E2E2E2ECE2E2E2E2E2E2E2E2E2E2E2E2E2E2E2E2E2E2E2E2
310
E2E2E2E2E2E2E2E2E2E2E2E2E2E2E2E2E2E2E2E2E2E2E2E2E2E2E2E2E2E2E2E2E2E2E2E2E2E2E2E2E2E2E2E2E2E2E2E2E2E2E2E2E2E2E2E2E2E2E2E2E2E2E2E2E2E2E2ECE240F5E2E2ECE2E2E2E2E2ECE2E2E2E2E2E2E2E2E2E2E2E2E2E2E2E2E2E2E2E2E2E2E2E2E2E2E2E2E2E2E2E2E2E2E2E2E2E2E2E2E2E2E2E2E2E2E2
310
E2E2E2E2E2E2E2E2E2E2E2E2E2E2E2E2E2E2E2E2E2E2E2E2E2E2E2E2E2E2E2E2E2E2E2E2E2E2E2E2ECE200F5E2E2ECE2E2E2E2E2ECE2E2E2E2E2E2E2E2E2E2E2E2E2E2E2E2E2E2E2E2E2E2E2E2E2E2E2E2E2E2E2E2E2E2E2E2E2E2E2E2E2E2E2E2E2E2E2E2E2E2E2E2E2E2E2E2E2E2E2E2E2E2E2E2E2E2E2E2E2E2E2E2E2E2
310
E2E2E2E2E2E2E2E2E2E2E2E2E2ECE200F5E2E2ECE2E2E2E2E2ECE2E2E2E2E2E2E2E2E2E2E2E2E2E2E2E2E2E2E2E2E2E2E2E2E2E2E2E2E2E2E2E2E2E2E2E2E2E2E2E2E2E2E2E2E2E2E2E2E2E2E2E2E2E2E2E2E2E2E2E2E2E2E2E2E2E2E2E2E2E2E2E2E2E2E2E2E2E2E2E2E2E2E2E2E2E2E2ECE200F5E2E2ECE2E2E2E2E2ECE2
310
E2E2E2E2E2E2E2E2E2E2E2E2E2E2E2E2E2E2E2E2E2E2E2E2E2E2E2E2E2E2E2E2E2E2E2E2E2E2E2E2E2E2E2E2E2E2E2E2E2E2E2E2E2E2E2E2E2E2E2E2E2E2E2E2E2E2E2E2E2E2E2E2E2E2E2E2E2E2E2E2E2E2E2E2E2E2ECE200F5E2E2ECF5E2E2E2E2ECE2E2E2E2E2E2E2E2E2E2E2E2E2E2E2E2E2E2E2E2E2E2E2E2E2E2E2E2
310
E2E2E2E2E2E2E2E2E2E2E2E2E2E2E2E2E2E2E2E2E2E2E2E2E2E2E2E2E2E2E2E2E2E2E2E2E2E2E2E2E2E2E2E2E2E2E2E2E2E2E2E2E2E2E2E2E2F5E2ECE200F5E2E2ECF5E2E2E2E2ECE2E2E2E2E2E2E2E2E2E2E2E2E2E2E2E2E2E2E2E2E2E2E2E2E2E2E2E2E2E2E2E2E2E2E2E2E2E2E2E2E2E2E2E2E2E2E2E2E2E2E2E2E2E2E2
310
E2E2E2E2E2E2E2E2E2E2E2E2E2E2E2E2E2E2E2E2E2E2E2E2E2E2E2E2E2E2F5E2ECE200F5E2E2ECF5E2E2E2E2ECE2E2E2E2E2E2E2E2E2E2E2E2E2E2E2E2E2E2E2E2E2E2E2E2E2E2E2E2E2E2E2E2E2E2E2E2E2E2E2E2E2E2E2E2E2E2E2E2E2E2E2E2E2E2E2E2E2E2E2E2E2E2E2E2E2E2E2E2E2E2E2E2E2E2E2E2E2E2E2E2E2E2
310
E2E2E2F5E2ECE200F5E2E2ECF5E2E2E2E2ECE2E2E2E2E2E2E2E2E2E2E2E2E2E2E2E2E2E2E2E2E2E2E2E2E2E2E2E2E2E2E2E2E2E2E2E2E2E2E2E2E2E2E2E2E2E2E2E2E2E2E2E2E2E2E2E2E2E2E2E2E2E2E2E2E2E2E2E2E2E2E2E2E2E2E2E2E2E2E2E2E2E2E2E2E2F5E2ECE200F5E2E2ECF5E2E2E2E2ECE2E2E2E2E2E2E2E2E2
310
E2E2E2E2E2E2E2E2E2E2E2E2E2E2E2E2E2E2E2E2E2E2E2E2E2E2E2E2E2E2E2E2E2E2E2E2E2E2E2E2E2E2E2E2E2E2E2E2E2E2E2E2E2E2E2E2E2E2E2E2E2E2E2E2E2E2E2E2E2E2E2E2E2E2E2E2F5E2ECE200F5E2E2ECF5E2E2E2E2ECE2E2E2E2E2E2E2E2E2E2E2E2E2E2E2E2E2E2E2E2E2E2E2E2E2E2E2E2E2E2E2E2E2E2E2E2
310
E2E2E2E2E2E2E2E2E2E2E2E2E2E2E2E2E2E2E2E2E2E2E2E2E2E2E2E2E2E2E2E2E2E2E2E2E2E2E2E2E2E2E2E2E2E2E2E2E2F5E2ECE20AF5E2E2ECF5E2E2E2E2ECE2E2E2E2E2E2E2E2E2E2E2E2E2E2E2E2E2E2E2E2ECECECECECECECECECECECECECECECECECECECECECECECECECECECECECECECECECECECECECECECECECECEC
310
ECECECECECECECECE2E2E2E2E2E2E2E2E2E2E2E2E2E2F5E2ECE200F5E2E2ECF5E2E2E2E2ECE2E2E2E2E2E2E2E2E2E2E2E2E2E2E2E2E2E2E2E2ECE2E2E2E2E2E2E2E2E2E2E2E2E2E2E2E2E2E2E2E2E2E2E2E2E2E2E2E2E2E2E2E2E2E2E2E2E2E2E2E2E2E2E2E2E2E2E2E2E2ECE2E2E2E2E2E2E2E2E2E2E2E2E2E2F5E2ECE200
310
F5E2E2ECF5E2E2E2E2ECE2E2E2E2E2E2E2E2E2E2E2E2E2E2E2E2E2E2E2E2ECE2E2E2777777777777777777777777777777777777777777777777777777777777777763777777777777637777E2E2E2E2ECE2E2E2E2E2E2E2E2E2E2E2E2E2E2F5E2ECE200F5E2E2ECF5E2E2E2E2ECE2E2E2E2E2E2E2E2E2E2E2E2E2E2E2E2E2
310
E2E2E2ECE2E2E277E2E2E2E2E2E2E2E2E2E2E2E2E2E2E2E2E2E2E2E2E2E2E2E2E2E2E2E2E263636363E2E2E2E263636363E2E2E2E2ECE2E2E2E2E2E2E2E2E2E2E2E2E2E2F5E2ECE243F5E2E2ECF5E2E2E2E2ECE2E2E2E2E2E2E2E2E2E2E2E2E2E2E2E2E2E2E2E2ECE2E2E29C9C9C9C9C9C9C9C9C9C9C9C9C9C9C9C9C9C9C9C
310
9C9C9C9C9C9C9C9C9C9C9C9C9C9C9C9C9C9C9C9C9C9CE2E2E2E2ECE2E2E2E2E2E2E2E2E2E2E2E2E2E2F5E2ECE244F5E2E2ECF5E2E2E2E2ECE2E2E2E2E2E2E2E2E2E2E2E2E2E2E2E2E2E2E2E2ECE2E2E277636363E29C636363E2E2E2E2E2E29C636363636363E2E2E29CE2E2E2E2E26363639CE2E2E263636363E2E2E2E2EC
310
E2E2E2E2E2E2E2E2E2E2E2E2E2E2F5E2ECE200F5E2E2ECF5E2E2E2E2ECE2E2E2E2E2E2E2E2E2E2E2E2E2E2E2E2E2E2E2E2ECE2E2E277636363E29C636363636363E2E2E29C63636363636363E2E29CE2E2E2E2E26363639CE2E2E2E2636363E2E2E2E2ECE2E2E2E2E2E2E2E2E2E2E2E2E2E2F5E2ECE244F5E2E2ECF5E2E2E2
310
E2ECE2E2E2E2E2E2E2E2E2E2E2E2E2E2E2E2E2E2E2E2ECE2E2E277636363E29C636363E2E2E2E2E2E29C63636363636363E2E29CE2E2E2E2E26363639CE2E2E263636363E2E2E2E2ECE2E2E2E2E2E2E2E2E2E2E2E2E2E2F5E2ECE244F5E2E2ECF5E2E2E2E2ECE2E2E2E2E2E2E2E2E2E2E2E2E2E2E2E2E2E2E2E2ECE2E2E277
310
636363E29C636363E2E2E2E2E2E29C636363636363E2E2E29CE2E2E2E2E26363639CE2E2E263636363E2E2E2E2ECE2E2E2E2E2E2E2E2E2E2E2E2E2E2F5E2ECE200F5E2E2ECF5E2E2E2E2ECE2E2E2E2E2E2E2E2E2E2E2E2E2E2E2E2E2E2E2E2ECE2E2E277636363E29C636363636363E2E2E29C63636363636363E2E29CE2E2
310
E2E2E26363639CE2E2E2E2636363E2E2E2E2ECE2E2E2E2E2E2E2E2E2E2E2E2E2E2F5E2ECE244F5E2E2ECF5E2E2E2E2ECE2E2E2E2E2E2E2E2E2E2E2E2E2E2E2E2E2E2E2E2ECE2E2E277636363E29C636363E2E2E2E2E2E29C63636363636363E2E29CE2E2E2E2E26363639CE2E2E263636363E2E2E2E2ECE2E2E2E2E2E2E2E2
310
E2E2E2E2E2E2F5E2ECE242F5E2E2ECE2E2E2E2E2ECE2E2E2E2E2E2E2E2E2E2E2E2E2E2E2E2E2E2E2E2ECE2E2E277636363E29C636363E2E2E2E2E2E29C636363636363E2E2E29CE2E2E2E2E26363639CE2E2E263636363E2E2E2E2ECE2E2E2E2E2E2E2E2E2E2E2E2E2E2E2E2ECE200F5E2E2ECE2E2E2E2E2ECE2E2E2E2E2E2
310
E2E2E2E2E2E2E2E2E2E2E2E2E2E2ECE2E2E277636363639C63636363E2E2E2E2E29C63636363E2E2E2E2E29CE2E2E2E2E26363639CE2E2E263636363E2E2E2E2ECE2E2E2E2E2E2E2E2E2E2E2E2E2E2E2E2ECE244F5E2E2ECE2E2E2E2E2ECE2E2E2E2E2E2E2E2E2E2E2E2E2E2E2E2E2E2E2E2ECE2E2E277636363E29C636363
310
63E2E2E2E2E29C63636363636363E2E29CE2E2E2E2E26363639CE2E2E263636363E2E2E2E2ECE2E2E2E2E2E2E2E2E2E2E2E2E2E2E2E2ECE243F5E2E2ECE2E2E2E2E2ECE2E2E2E2E2E2E2E2E2E2E2E2E2E2E2E2E2E2E2E2ECE2E2E277636363E29C6363E2E2E2E2E2E2E29C63636363636363E2E29CE2E2E2E2E26363639CE2
310
E2E2E2636363E2E2E2E2ECE2E2E2E2E2E2E2E2E2E2E2E2E2E2E2E2ECE200F5E2E2ECE2E2E2E2E2ECE2E2E2E2E2E2E2E2E2E2E2E2E2E2E2E2E2E2E2E2ECE2E2E277636363E29C636363E2E2E2E2E2E29C63636363636363E2E29CE2E2E2E2E26363639CE2E2E263636363E2E2E2E2ECE2E2E2E2E2E2E2E2E2E2E2E2E2E2E2E2
310
ECE244F5E2E2ECE2E2E2E2E2ECE2E2E2E2E2E2E2E2E2E2E2E2E2E2E2E2E2E2E2E2ECE2E2E277636363E29C636363E2E2E2E2E2E29CE2E263E2E263E2E2E29CE2E2E2E2E26363639CE2E2E263636363E2E2E2E2ECE2E2E2E2E2E2E2E2E2E2E2E2E2E2E2E2ECE244F5E2E2ECE2E2E2E2E2ECE2E2E2E2E2E2E2E2E2E2E2E2E2E2
310
E2E2E2E2E2E2ECE2E2E277636363E29C63636363E2E2E2E2E29C6363636363E2E2E2E29CE2E2E2E2E26363639CE2E2E2E2636363E2E2E2E2ECE2E2E2E2E2E2E2E2E2E2E2E2E2E2E2E2ECE200F5E2E2ECE2E2E2E2E2ECE2E2E2E2E2E2E2E2E2E2E2E2E2E2E2E2E2E2E2E2ECE2E2E277636363E29C63636363E2E2E2E2E29C63
310
63636363E2E2E2E29CE2E2E2E2E26363639CE2E2E2E2636363E2E2E2E2ECE2E2E2E2E2E2E2E2E2E2E2E2E2E2E2E2ECE243F5E2E2ECE2E2E2E2E2ECE2E2E2E2E2E2E2E2E2E2E2E2E2E2E2E2E2E2E2E2ECE2E2E29C9C9C9C9C9C9C9C9C9C9C9C9C9C9C9C9C9C9C9C9C9C9C9C9C9C9C9C9C9C9C9C9C9C9C9C9C9C9C9C9C9CE2E2
310
E2E2ECE2E2E2E2E2E2E2E2E2E2E2E2E2E2E2E2ECE244F5E2E2ECF5E2E2E2E2ECE2E2E2E2E2E2E2E2E2E2E2E2E2E2E2E2E2E2E2E2ECE2E2E29C9C9C9C9C9C9C9C9C9C9C9C9C9C9C9C9C9C63636363639C9C9C63636363636363639C63636363636363E2E2E2E2ECE2E2E2E2E2E2E2E2E2E2E2E2E2E2F5E2ECE200F5E2E2ECF5
310
E2E2E2E2ECE2E2E2E2E2E2E2E2E2E2E2E2E2E2E2E2E2E2E2E2ECE2E2E2A9A9A9A9A9A9A9A9A9A9A9A9A9A9A9A9A9A9A9A9A9E2E2E2E2E2E2E2E2E2E2E2E2E2E2E2E2E2E2E2E277E2E2E2E2ECE2E2E2E2E2E2E2E2E2E2E2E2E2E2F5E2ECE203F5E2E2ECF5E2E2E2E2ECE2E2E2E2E2E2E2E2E2E2E2E2E2E2E2E2E2E2E2E2ECE2
310
E2E2A9A9A9A9A9A977777777A977A9A97777A9A9777777777777777777777777777777777777777777777777E2E2E2E2ECE2E2E2E2E2E2E2E2E2E2E2E2E2E2F5E2ECE200F5E2E2ECF5E2E2E2E2ECE2E2E2E2E2E2E2E2E2E2E2E2E2E2E2E2E2E2E2E2ECE2E2E2E2E2E2E2E2E2E2E2E2E2E2E2E2E2E2E2E2E2E2E2E2E2E2E2E2
310
E2E2E2E2E2E2E2E2E2E2E2E2E2E2E2E2E2E2E2E2E2ECE2E2E2E2E2E2E2E2E2E2E2E2E2E2F5E2ECE211F5E2E2ECF5E2E2E2E2ECE2E2E2E2E2E2E2E2E2E2E2E2E2E2E2E2E2E2E2E2ECECECECECECECECECECECECECECECECECECECECECECECECECECECECECECECECECECECECECECECECECECECECECECECECECECECE2E2E2E2E2
310
E2E2E2E2E2E2E2E2E2F5E2ECE233F5E2E2ECF5E2E2E2E2ECE2E2E2E2E2E2E2E2E2E2E2E2E2E2E2E2E2E2E2E2E2E2E2E2E2E2E2E2E2E2E2E2E2E2E2E2E2E2E2E2E2E2E2E2E2E2E2E2E2E2E2E2E2E2E2E2E2E2E2E2E2E2E2E2E2E2E2E2E2E2E2E2E2E2E2E2E2E2E2E2E2E2E2E2E2F5E2ECE200F5E2E2ECF5E2E2E2E2ECE2E2E2
310
E2E2E2E2E2E2E2E2E2E2E2E2E2E2E2E2E2E2E2E2E2E2E2E2E2E2E2E2E2E2E2E2E2E2E2E2E2E2E2E2E2E2E2E2E2E2E2E2E2E2E2E2E2E2E2E2E2E2E2E2E2E2E2E2E2E2E2E2E2E2E2E2E2E2E2E2E2E2E2E2E2E2F5E2ECE200F5E2E2ECF5E2E2E2E2ECE2E2E2E2E2E2E2E2E2E2E2E2E2E2E2E2E2E2E2E2E2E2E2E2E2E2E2E2E2E2
310
E2E2E2E2E2E2E2E2E2E2E2E2E2E2E2E2E2E2E2E2E2E2E2E2E2E2E2E2E2E2E2E2E2E2E2E2E2E2E2E2E2E2E2E2E2E2E2E2E2E2E2E2E2E2E2F5E2ECE27EF5E2E2ECF5E2E2E2E2ECE2E2E2E2E2E2E2E2E2E2E2E2E2E2E2E2E2E2E2E2E2E2E2E2E2E2E2E2E2E2E2E2E2E2E2E2E2E2E2E2E2E2E2E2E2E2E2E2E2E2E2E2E2E2E2E2E2
310
E2E2E2E2E2E2E2E2E2E2E2E2E2E2E2E2E2E2E2E2E2E2E2E2E2E2E2E2F5E2ECE200F5E2E2ECF5E2E2E2E2ECE2E2E2E2E2E2E2E2E2E2E2E2E2E2E2E2E2E2E2E2E2E2E2E2E2E2E2E2E2E2E2E2E2E2E2E2E2E2E2E2E2E2E2E2E2E2E2E2E2E2E2E2E2E2E2E2E2E2E2E2E2E2E2E2E2E2E2E2E2E2E2E2E2E2E2E2E2E2E2E2E2E2E2E2
310
E2F5E2ECE200F5E2E2ECF5E2E2E2E2ECE2E2E2E2E2E2E2E2E2E2E2E2E2E2E2E2E2E2E2E2E2E2E2E2E2E2E2E2E2E2E2E2E2E2E2E2E2E2E2E2E2E2E2E2E2E2E2E2E2E2E2E2E2E2E2E2E2E2E2E2E2E2E2E2E2E2E2E2E2E2E2E2E2E2E2E2E2E2E2E2E2E2E2E2E2F5E2ECE2CDF5E2E2ECF5E2E2E2E2ECE2E2E2E2E2E2E2E2E2E2E2
310
E2E2E2E2E2E2E2E2E2E2E2E2E2E2E2E2E2E2E2E2E2E2E2E2E2E2E2E2E2E2E2E2E2E2E2E2E2E2E2E2E2E2E2E2E2E2E2E2E2E2E2E2E2E2E2E2E2E2E2E2E2E2E2E2E2E2E2E2E2E2E2E2E2E2F5E2ECE200F5E2E2ECF5E2E2E2E2ECE2E2E2E2E2E2E2E2E2E2E2E2E2E2E2E2E2E2E2E2E2E2E2E2E2E2E2E2E2E2E2E2E2E2E2E2E2E2
310
E2E2E2E2E2E2E2E2E2E2E2E2E2E2E2E2E2E2E2E2E2E2E2E2E2E2E2E2E2E2E2E2E2E2E2E2E2E2E2E2E2E2E2E2E2E2E2F5E2ECE2CDF5E2E2ECF5E2E2E2E2ECE2E2E2E2E2E2E2E2E2E2E2E2E2E2E2E2E2E2E2E2E2E2E2E2E2E2E2E2E2E2E2E2E2E2E2E2E2E2E2E2E2E2E2E2E2E2E2E2E2E2E2E2E2E2E2E2E2E2E2E2E2E2E2E2E2
310
E2E2E2E2E2E2E2E2E2E2E2E2E2E2E2E2E2E2E2E2F5E2ECE200F5E2E2ECF5E2E2E2E2ECE2E2E2E2E2E2E2E2E2E2E2E2E2E2E2E2E2E2E2E2E2E2E2E2E2E2E2E2E2E2E2E2E2E2E2E2E2E2E2E2E2E2E2E2E2E2E2E2E2E2E2E2E2E2E2E2E2E2E2E2E2E2E2E2E2E2E2E2E2E2E2E2E2E2E2E2E2E2E2E2E2E2E2E2E2F5E2ECE2CDF5E2
310
E2ECF5E2E2E2E2ECE2E2E2E2E2E2E2E2E2E2E2E2E2E2E2E2E2E2E2E2E2E2E2E2E2E2E2E2E2E2E2E2E2E2E2E2E2E2E2E2E2E2E2E2E2E2E2E2E2E2E2E2E2E2E2E2E2E2E2E2E2E2E2E2E2E2E2E2E2E2E2E2E2E2E2E2E2E2E2E2E2E2E2E2E2F5E2ECE200F5E2E2ECF5E2E2E2E2ECE2E2E2E2E2E2E2E2E2E2E2E2E2E2E2E2E2E2E2
310
E2E2E2E2E2E2E2E2E2E2E2E2E2E2E2E2E2E2E2E2E2E2E2E2E2E2E2E2E2E2E2E2E2E2E2E2E2E2E2E2E2E2E2E2E2E2E2E2E2E2E2E2E2E2E2E2E2E2E2E2E2E2E2E2E2E2F5E2ECE2CDF5E2E2ECE2E2E2E2E2ECE2E2ECECECECECECECECECECECECECECECECECECECECECECECECECECECECECECECECECECECECECECECECECECECEC
310
ECECECECECECECECECECECECECECECECECECECECECECECECECECECECECECECECECECECECE2E2E2E2E2ECE200F5E2E2ECE2E2E2E2E2ECE2E2ECF5E2E2E2E2E2E2E2E2E2E2E2E2E2E2E2E2E2E2E2E2E2E2E2E2E2E2E2E2E2E2E2E2E2E2E2E2E2E2E2E2E2E2E2E2E2E2E2E2E2E2E2E2E2E2E2E2E2E2E2E2E2E2E2E2E2E2E2E2E2
310
E2E2E2E2E2E2E2E2ECE2E2E2E2E2ECE2CDF5E2E2ECE2E2E2E2E2ECE2E2ECF5E2E2E2E2E2E2E2E2E2E2E2E2E2E2E2E2E2E2E2E2E2E2E2E2E2E2E2E2E2E2E2E2E2E2E2E2E2E2E2E2E2E2E2E2E2E2E2E2E2E2E2E2E2E2E2E2E2E2E2E2E2E2E2E2E2E2E2E2E2E2E2E2E2E2E2E2E2ECE2E2E2E2E2ECE200F5E2E2ECE2E2E2E2E2EC
310
E2E2ECF5E2E2E2E2E2E2E2E2E2E2E2E2E2E2E2E2E2E2E2F5F5E2E2E2E2E2E2E2E2E2E2E2E2E2E2E2E2E2E2E2E2E2E2E2E2E2E2E2E2E2E2E2E2E2E2E2E2E2E2E2E2E2E2E2E2E2E2E2E2E2E2E2E2E2E2E2E2ECE2E2E2E2E2ECE2CDF5E2E2ECE2E2E2E2E2ECE2E2ECF5E2E2E2E2E2E2E2E2E2E2E2E2E2E2E2E2E2E227F5F5A0A0
310
A0A0F5A0A0A0A0A0A0A0A0A0A0A0A0A0A0A0A0A0A0A0A0A0A0A0A0A0A0A0A0A0A0A0A0A0A0A0A0A0A0A0A0A0A0E2E2E2E2E2E2E2E2E2ECE2E2E2E2E2ECE200F5E2E2ECE2E2E2E2E2ECE2E2ECF5E2E2E2E2E2E2E2E2E2E2E2E2E2E2E2E2E2E22727E2A0A0E2E2E2E2E2E2E2E2E2E2E2E2E2E2E2E2E2E2E2E2E2E2E2E2E2E2E2
310
E2E2E2E2E2E2E2E2E2E2E2E2E2E2E2E2A0A0E2E2E2E2E2E2E2E2E2ECE2E2E2E2E2ECE2CDF5E2E2ECECECECECECECE2E2ECF5E2E2E2E2E2E2E2E2E2E2E2E2E2E2E2E2E2E22727E2A0E2A01D1D1DF51D1D1DF51D1DF51D1DF51D1DF5F51D1DF51D1D1D1D1D1D1D1D1D1D1D1D1D1D1DF5F51D1D1DA0E2A0E2E2E2E2E2E2E2E2E2
310
ECE2E2E2E2E2ECEC00F5E2E2ECE2E2E2E2E2ECE2E2ECF5E2E2E2E2E2E2E2E2E2E2E2E2E2E2E2E2E2E22727F5A0E2E21DF5F5F5F5F5F5F5F5F5F5F5F5F5F51DF5F51D1DF51D1DF51DF5F5F5F5F5F5F5F5F5F5F5F5F5F5F5F5E2E2A0E2E2E2E2E2E2E2E2E2ECE2E2E2E2E2ECE2CDF5E2E2ECE2E2E2E2E2ECE2E2ECF5E2E2E2E2
310
E2E2E2E2E2E2E2E2E2E2E2E2E2E2E2F5E2A0E2E2F5F5F5F5F5F5F5F5F5F5F5F5F5F5F522222222222222222222F5F5F5F5F5F5F5F5F5F5F5F5F5F5F51DE2E2A0E2E2E2E2E2E2E2E2E2ECE2E2E2E2E2ECE200F5E2E2ECE2E2E2E2E2ECE2E2ECF5E2E2E2E2E2E2E2E2E2E2E2A0A0A0A0A0A0A0A0A0A0A0A0A01DF5BEBEBEBEBE
310
BEBEBEBEBEBEBEBEBE1D1D29292929291D1DF5F5F5BEBEBEBEF5F5F5F5F5BEF5F51DE2E2A0E2E2E2E2E2E2E2E2E2ECE2E2E2E2E2ECE2CDF5E2E2ECF5E2E2E2E2ECE2E2ECF5E2E2E2E2E2E2E2E2E2E2E2A0A0E2E2E2E2E2E2E2E2A0E2E21DF5F5E2BEE2E2272727E222E2E2BEBEBEBEBEBEBEBEBE272727BEBEBEBEBEBEBE27
310
2727BEBEF5F5F5E2E2A0E2E2E2E2E2E2E2E2E2ECE2E2E2F5E2ECE200F5E2E2ECF5E2E2E2E2ECE2E2ECF5E2E2E2E2E2E2E2E2E2E2E2A0E2F5F5F5F5F5F5F5F5A0F5F5F5F5F5E2BE292927272729292929F5E2BEE22929292929272727E229BE29F5E2E2272727E2F5F5F51DE2E2A0E2E2E2E2E2E2E2E2E2ECE2E2E2F5E2ECE2
310
CDF5E2E2ECF5E2E2E2E2ECE2E2ECF5E2E2E2E2E2E2E2E2E2E2E2A0E2F5F5F5F5F5BEF5F5F5BEF5F5F5F5E2BE29BEE222575757E2E2F5E2E2BEE229BE29E229E2E2E229BEE2F5E2E2E2BEE2E2F5F5F51DE2E2A0E2E2E2E2E2E2E2E2E2ECE2E2E2F5E2ECE200F5E2E2ECF5E2E2E2E2ECE2E2ECF5E2E2E2E2E2E2E2E2E2E2E2A0
310
E2F5F5F5F5F5F5F5F5F5BEF5F5F5F5E2BE29E2BEE25757E257E2F52929BEE2E2BEE2BE29E2E2E2E2BE29F5E2E2BEE2E2E2F5F5F5F5E2E2A0E2E2E2E2E2E2E2E2E2ECE2E2E2F5E2ECE2CAF5E2E2ECF5E2E2E2E2ECE2E2ECF5E2E2E2E2E2E2E2E2E2E2E2A0E2F5F5F5F5F5F5F5F5F5BEF5F5F5F5272729E2E2BEE25757E257F5
310
E229E2BEBEBEBEE22929292727BE29F5E2BEE2E2E2E2F5F5F51DE2E2A0E2E2E2E2E2E2E2E2E2ECE2E2E2F5E2ECE200F5E2E2ECF5E2E2E2E2ECE2E2ECF5E2E2E2E2E2E2E2E2E2E2E2A0E2F5F5F5F5F5F5F5F5F5BEF5F5F5F52727295757E2BEE2575757F5E229E2E2E2BEE2E2E2E2E22727BEE2F5BEE2E2E2E2E2F5F5F51DE2
310
E2A0E2E2E2E2E2E2E2E2E2ECE2E2E2F5E2ECE200F5E2E2ECF5E2E2E2E2ECE2E2ECF5E2E2E2E2E2E2E2E2E2E2E2A0E2F5BEBEBEBEBE272727BEBEBEBEBE2727295757E2E2BEE25757F5F5F5E2E2E2E2E2E2E2E2E22727BE29F5E2E2E2E2E2E2F5F5F51DE2E2A0E2E2E2E2E2E2E2E2E2ECE2E2E2F5E2ECE240F5E2E2ECF5E2E2
310
E2E2ECE2E2ECF5E2E2E2E2E2E2E2E2E2E2E2A0E2F5F5F5F5E2BE272727BEE2E2E2F52727E2E2E2E2E2E2BEE2E257F5F5E2E2E2E2E2E2E2E2E22727BEBEF5E2E2E2222222F5F5F5F5E2E2A0E2E2E2E2E2E2E2E2E2ECE2E2E2F5E2ECE27FF5E2E2ECF5E2E2E2E2ECE2E2ECF5E2E2E2E2E2E2E2E2E2E2E2A0E2F5F5F5F5E2E2BE
310
BEE2BEE2E2E2F5E2BEBEE2E2E2E2E2BEBEE257F5F5E2E2E2E2E2E2292929E2E2BEE2E2E2E2E222E2E2F5F5F51DE2E2A0E2E2E2E2E2E2E2E2E2ECE2E2E2F5E2ECE23FF5E2E2ECF5E2E2E2E2ECE2E2ECF5E2E2E2E2E2E2E2E2E2E2E2A0E2F5F5F5F52222E2E2BEBE292929F5F5BEE2BEE229575757E2BE57F5F5D6D6E2E2E2E2
310
29E229E2BEBEE2E2E2E2E222E2E2F5F5F51DE2E2A0E2E2E2E2E2E2E2E2E2ECE2E2E2F5E2ECE200F5E2E2ECF5E2E2E2E2ECE2E2ECF5E2E2E2E2E2E2E2E2E2E2E2A0E2F51D1DE2E222E2E2BEBE29E2E2F5F5BE29292929E25757E2BEE2F5F5D6D6D6E2292929292929D6BED6F5292929292929F5F5F5F5E2E2A0E2E2E2E2E2E2
310
E2E2E2ECE2E2E2F5E2ECE200F5E2E2ECF5E2E2E2E2ECE2E2ECF5E2E2E2E2E2E2E2E2E2E2E2A0E2F51D1DE2E222E2E2E2BE292929F5F5BE2929BE2957E257E2E2BEF5F5D6D6E2D629292929292929BE29F5E229292929E2F5F5F51DE2E2A0E2E2E2E2E2E2E2E2E2ECE2E2E2F5E2ECE200F5E2E2ECF5E2E2E2E2ECE2E2ECF5E2
310
E2E2E2E2E2E2E2E2E2E2A0E2F5F5F5F5292929E2E2BE292929F5BEBEBEF5F5F5F5F5F5F5E2E2F5F5F5D6E2D6F5F5F5F5F5F5F5BEF5BEF5F5F5F5F5F5F5F5F51DE2E2A0E2E2E2E2E2E2E2E2E2ECE2E2E2F5E2ECE200F5E2E2ECF5E2E2E2E2ECE2E2ECF5E2E2E2E2E2E2E2E2E2E2E2A0E2F5F5F5F5222229E22727292929F5F5
310
F5F5F5F5F5F5F5F5F5E2E2F5BEF5E2BEBEBEF5F5F5F5F5F5F5F5F5F5F5BEF5F5F5BEF5F5F5E2E2A0E2E2E2E2E2E2E2E2E2ECE2E2E2F5E2ECE200F5E2E2ECF5E2E2E2E2ECE2E2ECF5E2E2E2E2E2E2E2E2E2E2E2A0E2F5BE1D29E22929292727292929BEBE1DBEC4C4C4C4C4C4C4E2E2D6E2BEBEE2BEF5BE2929E2F5F5F5F5F5
310
F529BE292929F5F5F51DE2E2A0E2E2E2E2E2E2E2E2E2ECE2E2E2F5E2ECE200F5E2E2ECF5E2E2E2E2ECE2E2ECF5E2E2E2E2E2E2E2E2E2E2E2A0E2F51D1D29E2292929272729E2BEF51DE2C41D1D1D1D1D1D1DD6D6E2E2E2272727BE2929292929E2E2E2E2E2E2BEE22929BEF5F51DE2E2A0E2E2E2E2E2E2E2E2E2ECE2E2E2F5
310
E2ECE200F5E2E2ECF5E2E2E2E2ECE2E2ECF5E2E2E2E2E2E2E2E2E2E2E2A0E2F5F5F5F5222229E22727292929F51D1D1D1D1D1D1D1D1D1DE2E2E2E2E2272727BEBEBEBEBEBEBE272727BEBEBEBEBEBEBEF5F5F5E2E2A0E2E2E2E2E2E2E2E2E2ECE2E2E2F5E2ECE200F5E2E2ECE2E2E2E2E2ECE2E2ECF5E2E2E2E2E2E2E2E2E2
310
E2E2A0E2F5F5F5F5292929E2E2BEE2BED6F51D1D1D1D1D1D1D1D1D1DE2E2E2E2E2272727BEE2D6E2E2E2E227272727E2BE222229F5F5F5F5E2E2A0E2E2E2E2E2E2E2E2E2ECE2E2E2E2E2ECE200F5E2E2ECE2E2E2E2E2ECE2E2ECF5E2E2E2E2E2E2E2E2E2E2E2A0E2F51D1DE2E222E2E2E2BEBED6E21DE2E2E21D1D1D1D1DE2
310
E2E2E2E2E2E22727BEF5BEE2E2E2E2E2E2E2E2E2E2BE22E229F5F5F5F5E2E2A0E2E2E2E2E2E2E2E2E2ECE2E2E2E2E2ECE200F5E2E2ECE2E2E2E2E2ECE2E2ECF5E2E2E2E2E2E2E2E2E2E2E2A0E2F51D1DE2E222E2E2BEBED6E2E21DE2E2E21D1D1D1D1DE2E2E2E2E2E2BEE2E2BEF5BEE2E2E2E2E2E2E2E2E2272722E229F5F5
310
F51DF5E2A0E2E2E2E2E2E2E2E2E2ECE2E2E2E2E2ECE200F5E2E2ECE2E2E2E2E2ECE2E2ECF5E2E2E2E2E2E2E2E2E2E2E2A0E2F5F5F5F52222E2E2BEBED62929BEF5F5BEF5F5F5F5F5E2E2F5F5F5BEF5F5F5BEF529292929E2E2E2E2E2E22727292929F5F5F5F5F5E2A0E2E2E2E2E2E2E2E2E2ECE2E2E2E2E2ECE200F5E2E2EC
310
E2E2E2E2E2ECE2E2ECF5E2E2E2E2E2E2E2E2E2E2E2A0E2F5F5F5F5E229292929BE292929F5E229BE292929E229E2E2F5F5BEE2E229E229F5F5292929E2E2E2E2E2E22727222929F5F5F51DF5E2A0E2E2E2E2E2E2E2E2E2ECE2E2E2E2E2ECE200F5E2E2ECE2E2E2E2E2ECE2E2ECF5E2E2E2E2E2E2E2E2E2E2E2A0E2F5F5F5F5
310
E229E2E2E2BEE22929F5BE29BEE22929E229E2E2D6BEE2E2E2E229E229F5F5E229E2E2E2E2E2E2E2BE222929F5F5F51DF5E2A0E2E2E2E2E2E2E2E2E2ECE2E2E2E2E2ECE200F5E2E2ECE2E2E2E2E2ECE2E2ECF5E2E2E2E2E2E2E2E2E2E2E2A0E2F5F5F5F5A029E2E2E2BE292929F52929BE2929292929D6D6BEE2E2E2E22929
310
29E229F5F5E2BEBEE2E2E2E2E2BE222929F5F5F5F5F5E2A0E2E2E2E2E2E2E2E2E2ECE2E2E2E2E2ECE200F5E2E2ECE2E2E2E2E2ECE2E2ECF5E2E2E2E2E2E2E2E2E2E2E2A0E2F5F5F5F5F5F5F5F5F5BEF5F5F5F5E2E2BEE2E2E2E2E2E2BEE2E2E2E229E229BE29E229F5BEE2E2BEE2E2E2E2BE222929BEF5F51DF5E2A0E2E2E2
310
E2E2E2E2E2E2ECE2E2E2E2E2ECE200F5E2E2ECE2E2E2E2E2ECE2E2ECF5E2E2E2E2E2E2E2E2E2E2E2A0E2F5F5F5F5F5F5F5F5F5BEF5F5F5F522272722E2E2E2E2BEE2E2E2E229BEBEE2BEE229E229F5292929D6D6E2E2BE22E2E2F5F5F51DF5E2A0E2E2E2E2E2E2E2E2E2ECE2E2E2E2E2ECE200F5E2E2ECF5E2E2E2E2ECE2E2
310
ECF5E2E2E2E2E2E2E2E2E2E2E2A0E2F5F5F5F5F5BEF5F5F5BEF5F5F5F5E2272722E2E2E2BEBEE2E2E229BEE2E2E2BEE2E229E2F5292929BEBED6E2BE292929F5F5F51DF5E2A0E2E2E2E2E2E2E2E2E2ECE2E2E2F5E2ECE200F5E2E2ECF5E2E2E2E2ECE2E2ECF5E2E2E2E2E2E2E2E2E2E2E2A0E2F5A0E2E2C3E2E2E2C3A0E2F5
310
F5F5E2272729E229BEE2E2E2E2E2E229E2E2E2BEE229E229F5F5F5F5E2E2F5F5BEF5F5F5BEF5F5F5F5E2A0E2E2E2E2E2E2E2E2E2ECE2E2E2F5E2ECE200F5E2E2ECF5E2E2E2E2ECE2E2ECF5E2E2E2E2E2E2E2E2E2E2E2F5E2F5F5F5F5C3F5F5F5C3F5F5F5F5F52229BE2929E229E2E2E2E2BEBEE229E2E2BE29E2E2E2F5F5F5
310
F5E2E2F5F5F5F5F5BEBEF5F51DF5C3F5F5F5F5E2E2E2E2E2E2ECE2E2E2F5E2ECE240F5E2E2ECF5E2E2E2E2ECE2E2ECF5E2E2E2E2E2E2E2E2E2E2E2A0A0E2E2E2E2C3E2E2E2C3E2E2F5F5F5E229BE2929BE29E2E2E2BEE2E2E2E229E229E2E2E2E2BEBEBEBEBE272727BEBEBEBEBEF5F5F5E2E2F5F5F5F5E2E2E2E2E2E2ECE2
310
E2E2F5E2ECE200F5E2E2ECF5E2E2E2E2ECE2E2ECF5E2E2E2E2E2E2E2E2E2E2E2A0A0A0A0A0A0C3A0A0A0C3A0A0F5F5BEBEBEBEBEBEBEBEBEBEBEBEBE27272727BEBEBEBEBEBEBE2929E2E2272727E2BE2727F5F5F5F5E2E2A0E2E2E2E2E2E2E2E2E2ECE2E2E2F5E2ECE240F5E2E2ECF5E2E2E2E2ECE2E2ECF5E2E2E2E2E2E2
310
E2E2E2E2E2F5E2F5E2E2F5C3E2E2F5C3E2E2F5F5F5E2E2BEBE29E229E2E2BE292927272727E2BEE2E2D6E2F52929E2E2E2E2E2E2BE2727F5F5F51DC3C3C3C3C3C3E2E2E2E2E2E2ECE2E2E2F5E2ECE200F5E2E2ECF5E2E2E2E2ECE2E2ECF5E2E2E2E2E2E2E2E2E2F5F5F527F5F5E2F5C3E2E2F5C3E2E2F5F5F5E2BEBEE22929
310
29E22929292929E2E2E2E2BED6D6D6E2F52929E2E2E2E2E2E2E22727F5F5F51DE2E2F5F5F5F5E2E2E2E2E2E2ECE2E2E2F5E2ECE200F5E2E2ECF5E2E2E2E2ECE2E2ECF5E2E2E2E2E2E2E2E2E2E2E22727F5E2E2F5C3E2E2F5C3E2E2F5F5F5BEE2BEE2E2E2E2E229BEE2E229E2E2E2E2D6E2E2D6E2F5E229E2E2E2E2E2E2E2E2
310
BEF5F5F5F5E2E2A0E2E2E2E2E2E2E2E2E2ECE2E2E2F5E2ECE200F5E2E2ECF5E2E2E2E2ECE2E2ECF5E2E2E2E2E2E2E2E2E2E2E22727E2E2E2F5C3E2E2F5C3E2E2F5F5BEF5F5BEF5F5F5F5F5F5F5F5F5F5F5F5D6D6D6E2E2F5F5BEF5F5F5F5F5F5F5F5F5F5BEBEF5F5F5E2E2A0E2E2E2E2E2E2E2E2E2ECE2E2E2F5E2ECE200F5
310
E2E2ECF5E2E2E2E2ECE2E2ECF5E2E2E2E2E2E2E2E2E2E2E2E2E2E2E2E2E2E2F5F5F5A0E2E2F5F5F5F5F5F5F5F5F5F5F5F5F5F5F5F5F5F5D6D6D6D6D6F5F5F5F5F5F5F5F5F5F5F5F5F5F5F5F5F51DE2E2F5E2E2E2E2E2E2E2E2E2ECE2E2E2F5E2ECE200F5E2E2ECF5E2E2E2E2ECE2E2ECF5E2E2E2E2E2E2E2E2E2E2E2E2E2E2
310
E2E2E2272727E2A0E2E2F5F5F51D1D1D1D1DF51D1DF5F51DF572E2E2E2E2BEE2E2E2E2F5F5F5F5F5F5F5F5F5F5F5F5F5F5F51DE2E2A0E2E2E2E2E2E2E2E2E2ECE2E2E2F5E2ECE200F5E2E2ECF5E2E2E2E2ECE2E2ECF5E2E2E2E2E2E2E2E2E2E2E2E2E2E2E2E2E2272727E2A0E2A0F5F5F5F5F5F5F5F5F5F5F5F5F5F5F5BEBE
310
BEBEBEBEBEBEBEBEF5F5F5F5F5F5F5F5F5F5F5F5F5F5F5F5A0E2A0E2E2E2E2E2E2E2E2E2ECE2E2E2F5E2ECE200F5E2E2ECF5E2E2E2E2ECE2E2ECF5E2E2E2E2E2E2E2E2E2E2E2E2E2E2E2E2E2272727E2A0A0E2E2E2E2E2E2E2E2E2E2E2E2E2E2E2A072E2E2E2E2E2E2E2E2E2A0E2E2E2E2E2C3E2E2E2C3E2E2E2E2E2E2A0A0
310
E2E2E2E2E2E2E2E2E2ECE2E2E2F5E2ECE200F5E2E2ECF5E2E2E2E2ECE2E2ECF5E2E2E2E2E2E2E2E2E2E2E2E2E2E2E2E2E2E227F5F5A0A0A0A0F5A0A0A0A0A0A0A0A0A0A0A0A0A072727272727272727272A0A0A0A0A0F5F5A0A0F5F5A0A0A0A0A0A0A0A0E2E2E2E2E2E2E2E2E2ECE2E2E2F5E2ECE200F5E2E2ECF5E2E2E2E2
310
ECE2E2ECF5E2E2E2E2E2E2E2E2E2E2E2E2E2E2E2E2E2E2E2F5E2E2E2E2E2E2E2E2E2E2E2E2E2E2E2E2E2E2E2E2E2E2E2E2E2E2E2E2E2E2E2E2E2E2F5F5E2E2F5F5E2E2E2F5E2E2E2F5E2E2E2E2E2E2E2E2E2ECE2E2E2F5E2ECE200F5E2E2ECF5E2E2E2E2ECE2E2ECF5E2E2E2E2E2E2E2E2E2E2E2E2E2E2E2E2E2E2E2E2E2E2
310
E2E2E2E2E2E2E2E2E2E2E2E2E2E2E2E2E2E2E2E2E2E2E2E2E2E2E2E2E2E2E2E2F5F5E2E2F5F5E2E2F5F5272727F5E2E2E2E2E2E2E2E2E2ECE2E2E2F5E2ECE200F5E2E2ECF5E2E2E2E2ECE2E2ECF5E2E2E2E2E2E2E2E2E2E2E2E2E2E2E2E2E2E2E2E2E2E2E2E2E2E2E2E2E2E2E2E2E2E2E2E2E2E2E2E2E2E2E2E2E2E2E2E2E2
310
E2E2E2E2E2F5F5E2E2F5F5E2E2E227272727F5E2E2E2E2E2E2E2E2E2ECE2E2E2F5E2ECE200F5E2E2ECE2E2E2E2E2ECE2E2ECF5E2E2E2E2E2E2E2E2E2E2E2E2E2E2E2E2E2E2E2E2E2E2E2E2E2E2E2E2E2E2E2E2E2E2E2E2E2E2E2E2E2E2E2E2E2E2E2E2E2E2E2E2E2E2F5F5E2E2F5F5E2E2E2E2E2E2E2E2E2E2E2E2E2E2E2E2
310
E2ECE2E2E2E2E2ECE200F5E2E2ECE2E2E2E2E2ECE2E2ECF5E2E2E2E2E2E2E2E2E2E2E2E2E2E2E2E2E2E2E2E2E2E2E2E2E2E2E2E2E2E2E2E2E2E2E2E2E2E2E2E2E2E2E2E2E2E2E2E2E2E2E2E2E2E2E2E2E2E2E2E2E2E2E2E2E2E2E2E2E2E2E2E2E2E2E2E2E2ECE2E2E2E2E2ECE200F5E2E2ECE2E2E2E2E2ECE2E2ECF5E2E2E2
310
E2E2E2E2E2E2E2E2E2E2E2E2E2E2E2E2E2E2E2E2E2E2E2E2E2E2E2E2E2E2E2E2E2E2E2E2E2E2E2E2E2E2E2E2E2E2E2E2E2E2E2E2E2E2E2E2E2E2E2E2E2E2E2E2E2E2E2E2E2E2E2E2E2E2ECE2E2E2E2E2ECE200F5E2E2ECE2E2E2E2E2ECE2E2ECF5E2E2E2E2E2E2E2E2E2E2E2E2E2E2E2E2E2E2E2E2E2E2E2E2E2E2E2E2E2E2
310
E2E2E2E2E2E2E2E2E2E2E2E2E2E2E2E2E2E2E2E2E2E2E2E2E2E2E2E2E2E2E2E2E2E2E2E2E2E2E2E2E2E2E2E2E2E2E2ECE2E2E2E2E2ECE236F5E2E2ECE2E2E2E2E2ECE2E2ECF5E2E2E2E2E2E2E2E2E2E2E2E2E2E2E2E2E2E2E2E2E2E2E2E2E2E2E2E2E2E2E2E2E2E2E2E2E2E2E2E2E2E2E2E2E2E2E2E2E2E2E2E2E2E2E2E2E2
310
E2E2E2E2E2E2E2E2E2E2E2E2E2E2E2E2E2E2E2E2ECE2E2E2E2E2ECE200F5E2E2ECE2E2E2E2E2ECE2E2ECF5E2E2E2E2E2E2E2E2E2E2E2E2E2E2E2E2E2E2E2E2E2E2E2E2E2E2E2E2E2E2E2E2E2E2E2E2E2E2E2E2E2E2E2E2E2E2E2E2E2E2E2E2E2E2E2E2E2E2E2E2E2E2E2E2E2E2E2E2E2E2E2E2E2E2E2E2E2ECE2E2E2E2E2EC
310
E236F5E2E2ECE2E2E2E2E2ECE2E2ECF5E2E2E2E2E2E2E2E2E2E2E2E2E2E2E2E2E2E2E2E2E2E2E2E2E2E2E2E2E2E2E2E2E2E2E2E2E2E2E2E2E2E2E2E2E2E2E2E2E2E2E2E2E2E2E2E2E2E2E2E2E2E2E2E2E2E2E2E2E2E2E2E2E2E2E2E2E2ECE2E2E2E2E2ECE200F5E2E2ECE2E2E2E2E2ECE2E2ECF5E2E2E2E2E2E2E2E2E2E2E2
310
E2E2E2E2E2E2E2E2E2E2E2E2E2E2E2E2E2E2E2E2E2E2E2E2E2E2E2E2E2E2E2E2E2E2E2E2E2E2E2E2E2E2E2E2E2E2E2E2E2E2E2E2E2E2E2E2E2E2E2E2E2E2E2E2E2E2ECE2E2E2E2E2ECE236F5E2E2ECE2E2E2E2E2ECE2E2ECECECECECECECECECECECECECECECECECECECECECECECECECECECECECECECECECECECECECECECEC
310
ECECECECECECECECECECECECECECECECECECECECECECECECECECECECECECECECECECECECECECECECE2E2E2E2E2ECE200F5E2E2ECE2E2E2E2E2ECE2E2E2E2E2E2E2E2E2E2E2E2E2E2E2E2E2E2E2E2E2E2E2E2E2E2E2E2E2E2E2E2E2E2E2E2E2E2E2E2E2E2E2E2E2E2E2E2E2E2E2E2E2E2E2E2E2E2E2E2E2E2E2E2E2E2E2E2E2
310
E2E2E2E2E2E2E2E2E2E2E2E2E2E2E2E2E2E2ECE236F5E2E2ECF5E2E2E2E2ECE2E2E2E2E2E2E2E2E2E2E2E2E2E2E2E2E2E2E2E2E2E2E2E2E2E2E2E2E2E2E2E2E2E2E2E2E2E2E2E2E2E2E2E2E2E2E2E2E2E2E2E2E2E2E2E2E2E2E2E2E2E2E2E2E2E2E2E2E2E2E2E2E2E2E2E2E2E2E2E2E2E2E2E2E2F5E2ECE200F5E2E2ECF5E2
310
E2E2E2ECE2E2E2E2E2E2E2E2E2E2E2E2E2E2E2E2E2E2E2E2E2E2E2E2E2E2E2E2E2E2E2E2E2E2E2E2E2E2E2E2E2E2E2E2E2E2E2E2E2E2E2E2E2E2E2E2E2E2E2E2E2E2E2E2E2E2E2E2E2E2E2E2E2E2E2E2E2E2E2E2E2E2E2E2E2F5E2ECE236F5E2E2ECF5E2E2E2E2ECE2E2E2E2E2E2E2E2E2E2E2E2E2E2E2E2E2E2E2E2E2E2E2
310
E2E2E2E2E2E2E2E2E2E2E2E2E2E2E2E2E2E2E2E2E2E2E2E2E2E2E2E2E2E2E2E2E2E2E2E2E2E2E2E2E2E2E2E2E2E2E2E2E2E2E2E2E2E2E2E2E2E2E2E2E2E2F5E2ECE200F5E2E2ECF5E2E2E2E2ECE2E2E2E2E2E2E2E2E2E2E2E2E2E2E2E2E2E2E2E2E2E2E2E2E2E2E2E2E2E2E2E2E2E2E2E2E2E2E2E2E2E2E2E2E2E2E2E2E2E2
310
E2E2E2E2E2E2E2E2E2E2E2E2E2E2E2E2E2E2E2E2E2E2E2E2E2E2E2E2E2E2E2E2E2E2E2F5E2ECE236F5E2E2ECF5E2E2E2E2ECE2E2E2E2E2E2E2E2E2E2E2E2E2E2E2E2E2E2E2E2E2E2E2E2E2E2E2E2E2E2E2E2E2E2E2BEBEBEBEBEBEBEBEBEBEBEBEBEBEBEE2E2E2E2E2E2E2E2E2E2E2E2E2E2E2E2E2E2E2E2E2E2E2E2E2E2E2
310
E2E2E2E2E2E2E2E2F5E2ECE200F5E2E2ECF5E2E2E2E2ECE2E2E2E2E2E2E2E2E2E2E2E2E2E2E2E2E2E2E2E2E2E2E2E2E2E2E2E2E2E2E2E2E2E2E2BEBEBEBEBEBEBEBEBEBEBEBEBEBEBEE2E2E2E2E2E2E2E2E2E2E2E2E2E2E2E2E2E2E2E2E2E2E2E2E2E2E2E2E2E2E2E2E2E2E2F5E2ECE236F5E2E2ECF5E2E2E2E2ECE2E2E2E2
310
E2E2E2E2E2E2E2E2E2E2E2E2E2E2E2E2E2E2E2E2E2E2E2E2E2E2E2E2E2E2E2E2E2E2E2E2E2E2E2E2E2E2E2E2E2E2E2E2E2E2E2E2E2E2E2E2E2E2E2E2E2E2E2E2E2E2E2E2E2E2E2E2E2E2E2E2E2E2E2E2E2F5E2ECE200F5E2E2ECF5E2E2E2E2ECE2E2E2E2E2E2E2E2E2E2E2E2E2E2E2E2E2E2E2E2E2E2E2E2E2E2E2E2E2E2E2
310
E2E2E2E2E2E2E2E2E2E2E2E2E2E2E2E2E2E2E2E2E2E2E2E2E2E2E2E2E2E2E2E2E2E2E2E2E2E2E2E2E2E2E2E2E2E2E2E2E2E2E2E2E2E2F5E2ECE236F5E2E2ECF5F5F5F5F5ECECECECECECECECECECECECECECECECECECECECECECECECECECECECECECECECECECECECECECECECECECECECECECECECECECECECECECECECECECEC
310
ECECECECECECECECECECECECECECECECECECECECECECECECECECECECECECE200F5E2E2ECE2E2E2E2E2E2E2E2E2E2E2E2E2E2E2E2E2E2E2E2E2E2E2E2E2E2E2E2E2E2E2E2E2E2E2E2E2E2E2E2E2E2E2E2E2E2E2E2E2E2E2E2E2E2E2E2E2E2E2E2E2E2E2E2E2E2E2E2E2E2E2E2E2E2E2E2E2E2E2E2E2E2E2E2E2E2E2E2E2E2E2
310
E2E2E2E236F5E2E2ECE2E2E2E2E2E2E2E2E2E2E2E2E2E2E2E2E2E2E2E2E2E2E2E2E2E2E2E2E2E2E2E2E2E2E2E2E2E2E2E2E2E2E2E2E2E2E2E2E2E2E2E2E2E2E2E2E2E2E2E2E2E2E2E2E2E2E2E2E2E2E2E2E2E2E2E2E2E2E2E2E2E2E2E2E2E2E2E2E2E2E2E2E2E2E200F5F5F5ECF5F5F5F5F5F5F5F5F5F5F5F5F5F5F5F5F5F5
310
F5F5F5F5F5F5F5F5F5F5F5F5F5F5F5F5F5F5F5F5F5F5F5F5F5F5F5F5F5F5F5F5F5F5F5F5F5F5F5F5F5F5F5F5F5F5F5F5F5F5F5F5F5F5F5F5F5F5F5F5F5F5F5F5F5F5F5F5F5F5F5F5F5F5F5F5F536
  0
XRECORD
  5
314
102
{ACAD_REACTORS
330
313
102
}
330
313
100
AcDbXrecord
280
     1
102
MATERIAL
148
0.0
149
0.0
149
0.0
 93
        0
 94
      127
282
     0
 72
     1
 77
     1
171
     1
175
     1
179
     1
273
     0
  0
XRECORD
  5
312
102
{ACAD_REACTORS
330
311
102
}
330
311
100
AcDbXrecord
280
     1
102
MATERIAL
148
0.0
149
0.0
149
0.0
 93
        0
 94
      127
282
     0
 72
     1
 77
     1
171
     1
175
     1
179
     1
273
     0
  0
XRECORD
  5
30D
102
{ACAD_REACTORS
330
30C
102
}
330
30C
100
AcDbXrecord
280
     1
102
MATERIAL
148
0.0
149
0.0
149
0.0
 93
        0
 94
      127
282
     0
 72
     1
 77
     1
171
     1
175
     1
179
     1
273
     0
  0
CELLSTYLEMAP
  5
34A
102
{ACAD_REACTORS
330
2E7
102
}
330
2E7
100
AcDbCellStyleMap
 90
        3
300
CELLSTYLE
  1
TABLEFORMAT_BEGIN
 90
        5
170
     1
 91
        0
 92
    32768
 62
   257
 93
        1
300
CONTENTFORMAT
  1
CONTENTFORMAT_BEGIN
 90
        0
 91
        0
 92
        4
 93
        0
300

 40
0.0
140
1.0
 94
        5
 62
     0
340
2C5
144
0.25
309
CONTENTFORMAT_END
171
     1
301
MARGIN
  1
CELLMARGIN_BEGIN
 40
0.06
 40
0.06
 40
0.06
 40
0.06
 40
0.18
 40
0.18
309
CELLMARGIN_END
 94
        6
 95
        1
302
GRIDFORMAT
  1
GRIDFORMAT_BEGIN
 90
        0
 91
        1
 62
     0
 92
       -2
340
0
 93
        0
 40
0.045
309
GRIDFORMAT_END
 95
        2
302
GRIDFORMAT
  1
GRIDFORMAT_BEGIN
 90
        0
 91
        1
 62
     0
 92
       -2
340
0
 93
        0
 40
0.045
309
GRIDFORMAT_END
 95
        4
302
GRIDFORMAT
  1
GRIDFORMAT_BEGIN
 90
        0
 91
        1
 62
     0
 92
       -2
340
0
 93
        0
 40
0.045
309
GRIDFORMAT_END
 95
        8
302
GRIDFORMAT
  1
GRIDFORMAT_BEGIN
 90
        0
 91
        1
 62
     0
 92
       -2
340
0
 93
        0
 40
0.045
309
GRIDFORMAT_END
 95
       16
302
GRIDFORMAT
  1
GRIDFORMAT_BEGIN
 90
        0
 91
        1
 62
     0
 92
       -2
340
0
 93
        0
 40
0.045
309
GRIDFORMAT_END
 95
       32
302
GRIDFORMAT
  1
GRIDFORMAT_BEGIN
 90
        0
 91
        1
 62
     0
 92
       -2
340
0
 93
        0
 40
0.045
309
GRIDFORMAT_END
309
TABLEFORMAT_END
  1
CELLSTYLE_BEGIN
 90
        1
 91
        1
300
_TITLE
309
CELLSTYLE_END
300
CELLSTYLE
  1
TABLEFORMAT_BEGIN
 90
        5
170
     1
 91
        0
 92
        0
 62
   257
 93
        1
300
CONTENTFORMAT
  1
CONTENTFORMAT_BEGIN
 90
        0
 91
        0
 92
        4
 93
        0
300

 40
0.0
140
1.0
 94
        5
 62
     0
340
2C5
144
0.18
309
CONTENTFORMAT_END
171
     1
301
MARGIN
  1
CELLMARGIN_BEGIN
 40
0.06
 40
0.06
 40
0.06
 40
0.06
 40
0.18
 40
0.18
309
CELLMARGIN_END
 94
        6
 95
        1
302
GRIDFORMAT
  1
GRIDFORMAT_BEGIN
 90
        0
 91
        1
 62
     0
 92
       -2
340
0
 93
        0
 40
0.045
309
GRIDFORMAT_END
 95
        2
302
GRIDFORMAT
  1
GRIDFORMAT_BEGIN
 90
        0
 91
        1
 62
     0
 92
       -2
340
0
 93
        0
 40
0.045
309
GRIDFORMAT_END
 95
        4
302
GRIDFORMAT
  1
GRIDFORMAT_BEGIN
 90
        0
 91
        1
 62
     0
 92
       -2
340
0
 93
        0
 40
0.045
309
GRIDFORMAT_END
 95
        8
302
GRIDFORMAT
  1
GRIDFORMAT_BEGIN
 90
        0
 91
        1
 62
     0
 92
       -2
340
0
 93
        0
 40
0.045
309
GRIDFORMAT_END
 95
       16
302
GRIDFORMAT
  1
GRIDFORMAT_BEGIN
 90
        0
 91
        1
 62
     0
 92
       -2
340
0
 93
        0
 40
0.045
309
GRIDFORMAT_END
 95
       32
302
GRIDFORMAT
  1
GRIDFORMAT_BEGIN
 90
        0
 91
        1
 62
     0
 92
       -2
340
0
 93
        0
 40
0.045
309
GRIDFORMAT_END
309
TABLEFORMAT_END
  1
CELLSTYLE_BEGIN
 90
        2
 91
        1
300
_HEADER
309
CELLSTYLE_END
300
CELLSTYLE
  1
TABLEFORMAT_BEGIN
 90
        5
170
     1
 91
        0
 92
        0
 62
   257
 93
        1
300
CONTENTFORMAT
  1
CONTENTFORMAT_BEGIN
 90
        0
 91
        0
 92
        4
 93
        0
300

 40
0.0
140
1.0
 94
        2
 62
     0
340
2C5
144
0.18
309
CONTENTFORMAT_END
171
     1
301
MARGIN
  1
CELLMARGIN_BEGIN
 40
0.06
 40
0.06
 40
0.06
 40
0.06
 40
0.18
 40
0.18
309
CELLMARGIN_END
 94
        6
 95
        1
302
GRIDFORMAT
  1
GRIDFORMAT_BEGIN
 90
        0
 91
        1
 62
     0
 92
       -2
340
0
 93
        0
 40
0.045
309
GRIDFORMAT_END
 95
        2
302
GRIDFORMAT
  1
GRIDFORMAT_BEGIN
 90
        0
 91
        1
 62
     0
 92
       -2
340
0
 93
        0
 40
0.045
309
GRIDFORMAT_END
 95
        4
302
GRIDFORMAT
  1
GRIDFORMAT_BEGIN
 90
        0
 91
        1
 62
     0
 92
       -2
340
0
 93
        0
 40
0.045
309
GRIDFORMAT_END
 95
        8
302
GRIDFORMAT
  1
GRIDFORMAT_BEGIN
 90
        0
 91
        1
 62
     0
 92
       -2
340
0
 93
        0
 40
0.045
309
GRIDFORMAT_END
 95
       16
302
GRIDFORMAT
  1
GRIDFORMAT_BEGIN
 90
        0
 91
        1
 62
     0
 92
       -2
340
0
 93
        0
 40
0.045
309
GRIDFORMAT_END
 95
       32
302
GRIDFORMAT
  1
GRIDFORMAT_BEGIN
 90
        0
 91
        1
 62
     0
 92
       -2
340
0
 93
        0
 40
0.045
309
GRIDFORMAT_END
309
TABLEFORMAT_END
  1
CELLSTYLE_BEGIN
 90
        3
 91
        2
300
_DATA
309
CELLSTYLE_END
  0
XRECORD
  5
34F
102
{ACAD_REACTORS
330
2E7
102
}
330
2E7
100
AcDbXrecord
280
     1
102
ACAD_ROUNDTRIP_PRE2007_TABLESTYLE
 90
        4
 91
        0
  1

 92
        4
 93
        0
  2

 94
        4
 95
        0
  3

  0
ENDSEC
  0
EOF
