  0
SECTION
  2
HEADER
  9
$ACADVER
  1
AC1015
  9
$ACADMAINTVER
 70
    18
  9
$DWGCODEPAGE
  3
ANSI_1250
  9
$INSBASE
 10
0.0
 20
0.0
 30
0.0
  9
$EXTMIN
 10
1.000000000000000E+20
 20
1.000000000000000E+20
 30
1.000000000000000E+20
  9
$EXTMAX
 10
0.0
 20
0.0
 30
0.0
  9
$LIMMIN
 10
0.0
 20
0.0
  9
$LIMMAX
 10
12.0
 20
9.0
  9
$ORTHOMODE
 70
     1
  9
$REGENMODE
 70
     1
  9
$FILLMODE
 70
     1
  9
$QTEXTMODE
 70
     0
  9
$MIRRTEXT
 70
     0
  9
$LTSCALE
 40
75.0
  9
$ATTMODE
 70
     1
  9
$TEXTSIZE
 40
5.0
  9
$TRACEWID
 40
40.0
  9
$TEXTSTYLE
  7
ROMANS
  9
$CLAYER
  8
0Wymiary-PL
  9
$CELTYPE
  6
BYLAYER
  9
$CECOLOR
 62
   256
  9
$CELTSCALE
 40
4.0
  9
$DISPSILH
 70
     0
  9
$DIMSCALE
 40
1.0
  9
$DIMASZ
 40
30.0
  9
$DIMEXO
 40
43.0
  9
$DIMDLI
 40
0.0
  9
$DIMRND
 40
0.5
  9
$DIMDLE
 40
12.0
  9
$DIMEXE
 40
13.0
  9
$DIMTP
 40
0.0
  9
$DIMTM
 40
0.0
  9
$DIMTXT
 40
80.0
  9
$DIMCEN
 40
0.0
  9
$DIMTSZ
 40
0.0
  9
$DIMTOL
 70
     0
  9
$DIMLIM
 70
     0
  9
$DIMTIH
 70
     0
  9
$DIMTOH
 70
     0
  9
$DIMSE1
 70
     1
  9
$DIMSE2
 70
     1
  9
$DIMTAD
 70
     0
  9
$DIMZIN
 70
    12
  9
$DIMBLK
  1
B-DIM
  9
$DIMASO
 70
     1
  9
$DIMSHO
 70
     1
  9
$DIMPOST
  1

  9
$DIMAPOST
  1

  9
$DIMALT
 70
     0
  9
$DIMALTD
 70
     2
  9
$DIMALTF
 40
25.4
  9
$DIMLFAC
 40
1.0
  9
$DIMTOFL
 70
     1
  9
$DIMTVP
 40
1.0
  9
$DIMTIX
 70
     1
  9
$DIMSOXD
 70
     0
  9
$DIMSAH
 70
     0
  9
$DIMBLK1
  1

  9
$DIMBLK2
  1

  9
$DIMSTYLE
  2
500
  9
$DIMCLRD
 70
     1
  9
$DIMCLRE
 70
     1
  9
$DIMCLRT
 70
   140
  9
$DIMTFAC
 40
1.0
  9
$DIMGAP
 40
0.0
  9
$DIMJUST
 70
     0
  9
$DIMSD1
 70
     0
  9
$DIMSD2
 70
     0
  9
$DIMTOLJ
 70
     1
  9
$DIMTZIN
 70
     0
  9
$DIMALTZ
 70
     0
  9
$DIMALTTZ
 70
     0
  9
$DIMUPT
 70
     0
  9
$DIMDEC
 70
     1
  9
$DIMTDEC
 70
     1
  9
$DIMALTU
 70
     2
  9
$DIMALTTD
 70
     2
  9
$DIMTXSTY
  7
ROMANS
  9
$DIMAUNIT
 70
     0
  9
$DIMADEC
 70
     0
  9
$DIMALTRND
 40
0.0
  9
$DIMAZIN
 70
     0
  9
$DIMDSEP
 70
    46
  9
$DIMATFIT
 70
     3
  9
$DIMFRAC
 70
     0
  9
$DIMLDRBLK
  1
B-DIM
  9
$DIMLUNIT
 70
     2
  9
$DIMLWD
 70
    -2
  9
$DIMLWE
 70
    -2
  9
$DIMTMOVE
 70
     2
  9
$LUNITS
 70
     2
  9
$LUPREC
 70
     2
  9
$SKETCHINC
 40
0.1
  9
$FILLETRAD
 40
0.0
  9
$AUNITS
 70
     0
  9
$AUPREC
 70
     1
  9
$MENU
  1
acad
  9
$ELEVATION
 40
0.0
  9
$PELEVATION
 40
0.0
  9
$THICKNESS
 40
0.0
  9
$LIMCHECK
 70
     0
  9
$CHAMFERA
 40
30.0
  9
$CHAMFERB
 40
30.0
  9
$CHAMFERC
 40
0.0
  9
$CHAMFERD
 40
0.0
  9
$SKPOLY
 70
     0
  9
$TDCREATE
 40
2450817.525937848
  9
$TDUCREATE
 40
2450817.442604514
  9
$TDUPDATE
 40
2455357.471343310
  9
$TDUUPDATE
 40
2455357.388009977
  9
$TDINDWG
 40
21.9984192130
  9
$TDUSRTIMER
 40
21.9984192130
  9
$USRTIMER
 70
     1
  9
$ANGBASE
 50
0.0
  9
$ANGDIR
 70
     0
  9
$PDMODE
 70
     3
  9
$PDSIZE
 40
10.0
  9
$PLINEWID
 40
0.0
  9
$SPLFRAME
 70
     0
  9
$SPLINETYPE
 70
     6
  9
$SPLINESEGS
 70
     8
  9
$HANDSEED
  5
255
  9
$SURFTAB1
 70
     6
  9
$SURFTAB2
 70
     6
  9
$SURFTYPE
 70
     6
  9
$SURFU
 70
     6
  9
$SURFV
 70
     6
  9
$UCSBASE
  2

  9
$UCSNAME
  2

  9
$UCSORG
 10
0.0
 20
0.0
 30
0.0
  9
$UCSXDIR
 10
1.0
 20
0.0
 30
0.0
  9
$UCSYDIR
 10
0.0
 20
1.0
 30
0.0
  9
$UCSORTHOREF
  2

  9
$UCSORTHOVIEW
 70
     1
  9
$UCSORGTOP
 10
0.0
 20
0.0
 30
0.0
  9
$UCSORGBOTTOM
 10
0.0
 20
0.0
 30
0.0
  9
$UCSORGLEFT
 10
0.0
 20
0.0
 30
0.0
  9
$UCSORGRIGHT
 10
0.0
 20
0.0
 30
0.0
  9
$UCSORGFRONT
 10
0.0
 20
0.0
 30
0.0
  9
$UCSORGBACK
 10
0.0
 20
0.0
 30
0.0
  9
$PUCSBASE
  2

  9
$PUCSNAME
  2

  9
$PUCSORG
 10
0.0
 20
0.0
 30
0.0
  9
$PUCSXDIR
 10
1.0
 20
0.0
 30
0.0
  9
$PUCSYDIR
 10
0.0
 20
1.0
 30
0.0
  9
$PUCSORTHOREF
  2

  9
$PUCSORTHOVIEW
 70
     0
  9
$PUCSORGTOP
 10
0.0
 20
0.0
 30
0.0
  9
$PUCSORGBOTTOM
 10
0.0
 20
0.0
 30
0.0
  9
$PUCSORGLEFT
 10
0.0
 20
0.0
 30
0.0
  9
$PUCSORGRIGHT
 10
0.0
 20
0.0
 30
0.0
  9
$PUCSORGFRONT
 10
0.0
 20
0.0
 30
0.0
  9
$PUCSORGBACK
 10
0.0
 20
0.0
 30
0.0
  9
$USERI1
 70
     0
  9
$USERI2
 70
     0
  9
$USERI3
 70
     0
  9
$USERI4
 70
     0
  9
$USERI5
 70
     0
  9
$USERR1
 40
0.0
  9
$USERR2
 40
0.0
  9
$USERR3
 40
0.0
  9
$USERR4
 40
0.0
  9
$USERR5
 40
0.0
  9
$WORLDVIEW
 70
     1
  9
$SHADEDGE
 70
     3
  9
$SHADEDIF
 70
    70
  9
$TILEMODE
 70
     1
  9
$MAXACTVP
 70
    16
  9
$PINSBASE
 10
5931.669543547489
 20
-50.0
 30
10705.17123084718
  9
$PLIMCHECK
 70
     0
  9
$PEXTMIN
 10
-0.7937495347798631
 20
-0.7937489321484464
 30
0.0
  9
$PEXTMAX
 10
209.2062504652201
 20
296.2062510678515
 30
0.0
  9
$PLIMMIN
 10
-6.805083274841308
 20
-5.027085781097412
  9
$PLIMMAX
 10
203.1682443618775
 20
291.9412369728089
  9
$UNITMODE
 70
     0
  9
$VISRETAIN
 70
     0
  9
$PLINEGEN
 70
     0
  9
$PSLTSCALE
 70
     0
  9
$TREEDEPTH
 70
  3020
  9
$CMLSTYLE
  2
STANDARD
  9
$CMLJUST
 70
     0
  9
$CMLSCALE
 40
1.0
  9
$PROXYGRAPHICS
 70
     1
  9
$MEASUREMENT
 70
     0
  9
$CELWEIGHT
370
    -1
  9
$ENDCAPS
280
     0
  9
$JOINSTYLE
280
     0
  9
$LWDISPLAY
290
     0
  9
$INSUNITS
 70
     5
  9
$HYPERLINKBASE
  1

  9
$STYLESHEET
  1

  9
$XEDIT
290
     1
  9
$CEPSNTYPE
380
     0
  9
$PSTYLEMODE
290
     1
  9
$FINGERPRINTGUID
  2
{A143060A-F41D-48BB-A0D0-39E2D37DDC56}
  9
$VERSIONGUID
  2
{C433C691-D171-4A87-A99A-C1D832259DF6}
  9
$EXTNAMES
290
     1
  9
$PSVPSCALE
 40
0.0
  9
$OLESTARTUP
290
     0
  0
ENDSEC
  0
SECTION
  2
CLASSES
  0
CLASS
  1
DICTIONARYVAR
  2
AcDbDictionaryVar
  3
ObjectDBX Classes
 90
        0
280
     0
281
     0
  0
CLASS
  1
ACDBDICTIONARYWDFLT
  2
AcDbDictionaryWithDefault
  3
ObjectDBX Classes
 90
        0
280
     0
281
     0
  0
CLASS
  1
ACDBPLACEHOLDER
  2
AcDbPlaceHolder
  3
ObjectDBX Classes
 90
        0
280
     0
281
     0
  0
CLASS
  1
LAYOUT
  2
AcDbLayout
  3
ObjectDBX Classes
 90
        0
280
     0
281
     0
  0
CLASS
  1
AEC_VARS_DWG_SETUP
  2
AecDbVarsDwgSetup
  3
AecBase50|Product Desc: Autodesk Architectural Desktop 2007 |Company: Autodesk,Inc. |WEB Address: www.autodesk.com
 90
    32897
280
     0
281
     0
  0
CLASS
  1
AEC_DISP_REP_CONFIG
  2
AecDbDispRepConfig
  3
AecBase50|Product Desc: Autodesk Architectural Desktop 2007 |Company: Autodesk,Inc. |WEB Address: www.autodesk.com
 90
    32897
280
     0
281
     0
  0
CLASS
  1
AEC_DISP_REP_SET
  2
AecDbDispRepSet
  3
AecBase50|Product Desc: Autodesk Architectural Desktop 2007 |Company: Autodesk,Inc. |WEB Address: www.autodesk.com
 90
    32897
280
     0
281
     0
  0
CLASS
  1
AEC_DISP_REP_2D_SECTION
  2
AecDbDispRep2dSection
  3
AecBase50|Product Desc: Autodesk Architectural Desktop 2007 |Company: Autodesk,Inc. |WEB Address: www.autodesk.com
 90
    32897
280
     0
281
     0
  0
CLASS
  1
AEC_DISP_REP_ANCHOR_BUB_TO_GRID
  2
AecDbDispRepAnchorBubToGrid
  3
AecStructureBase50|Product Desc: Autodesk Architectural Desktop 2007 |Company: Autodesk,Inc. |WEB Address: www.autodesk.com
 90
    32897
280
     0
281
     0
  0
CLASS
  1
AEC_DISP_REP_ANCHOR_BUB_TO_GRID_MODEL
  2
AecDbDispRepAnchorBubToGridMdl
  3
AecStructureBase50|Product Desc: Autodesk Architectural Desktop 2007 |Company: Autodesk,Inc. |WEB Address: www.autodesk.com
 90
    32897
280
     0
281
     0
  0
CLASS
  1
AEC_DISP_REP_ANCHOR_ENT_TO_NODE
  2
AecDbDispRepAnchorEntToNode
  3
AecBaseEx50|Product Desc: Autodesk Architectural Desktop 2007 |Company: Autodesk,Inc. |WEB Address: www.autodesk.com
 90
    32897
280
     0
281
     0
  0
CLASS
  1
AEC_DISP_REP_ANCHOR_TAG_TO_ENT
  2
AecDbDispRepAnchorTagToEnt
  3
AecScheduleData50|Product Desc: Autodesk Architectural Desktop 2007 |Company: Autodesk,Inc. |WEB Address: www.autodesk.com
 90
    32897
280
     0
281
     0
  0
CLASS
  1
AEC_DISP_REP_AREA
  2
AecDbDispRepArea
  3
AecAreaCalculationBase50|Product Desc: Autodesk Architectural Desktop 2007 |Company: Autodesk,Inc. |WEB Address: www.autodesk.com
 90
    32897
280
     0
281
     0
  0
CLASS
  1
AEC_DISP_REP_AREA_DECOMPOSED
  2
AecDbDispRepAreaDecomposed
  3
AecAreaCalculationBase50|Product Desc: Autodesk Architectural Desktop 2007 |Company: Autodesk,Inc. |WEB Address: www.autodesk.com
 90
    32897
280
     0
281
     0
  0
CLASS
  1
AEC_DISP_REP_AREAGROUP
  2
AecDbDispRepAreaGroup
  3
AecAreaCalculationBase50|Product Desc: Autodesk Architectural Desktop 2007 |Company: Autodesk,Inc. |WEB Address: www.autodesk.com
 90
    32897
280
     0
281
     0
  0
CLASS
  1
AEC_DISP_REP_BDG_ELEVLINE_MODEL
  2
AecDbDispRepBdgElevLineModel
  3
AecArchBase50|Product Desc: Autodesk Architectural Desktop 2007 |Company: Autodesk,Inc. |WEB Address: www.autodesk.com
 90
    32897
280
     0
281
     0
  0
CLASS
  1
AEC_DISP_REP_BDG_SECTIONLINE_PLAN
  2
AecDbDispRepBdgElevLinePlan
  3
AecArchBase50|Product Desc: Autodesk Architectural Desktop 2007 |Company: Autodesk,Inc. |WEB Address: www.autodesk.com
 90
    32897
280
     0
281
     0
  0
CLASS
  1
AEC_DISP_REP_BDG_SECTIONLINE_MODEL
  2
AecDbDispRepBdgSectionLineModel
  3
AecArchBase50|Product Desc: Autodesk Architectural Desktop 2007 |Company: Autodesk,Inc. |WEB Address: www.autodesk.com
 90
    32897
280
     0
281
     0
  0
CLASS
  1
AEC_DISP_REP_BDG_SECTIONLINE_PLAN
  2
AecDbDispRepBdgSectionLinePlan
  3
AecArchBase50|Product Desc: Autodesk Architectural Desktop 2007 |Company: Autodesk,Inc. |WEB Address: www.autodesk.com
 90
    32897
280
     0
281
     0
  0
CLASS
  1
AEC_DISP_REP_BDG_SECTION_SUBDIV
  2
AecDbDispRepBdgSectionSubDiv
  3
AecArchBase50|Product Desc: Autodesk Architectural Desktop 2007 |Company: Autodesk,Inc. |WEB Address: www.autodesk.com
 90
    32897
280
     0
281
     0
  0
CLASS
  1
AEC_DISP_REP_CAMERA
  2
AecDbDispRepCamera
  3
AecBase50|Product Desc: Autodesk Architectural Desktop 2007 |Company: Autodesk,Inc. |WEB Address: www.autodesk.com
 90
    32897
280
     0
281
     0
  0
CLASS
  1
AEC_DISP_REP_CEILING_GRID
  2
AecDbDispRepCeilingGrid
  3
AecArchBase50|Product Desc: Autodesk Architectural Desktop 2007 |Company: Autodesk,Inc. |WEB Address: www.autodesk.com
 90
    33661
280
     0
281
     0
  0
CLASS
  1
AEC_DISP_REP_CEILING_GRID_MODEL
  2
AecDbDispRepCeilingGridModel
  3
AecArchBase50|Product Desc: Autodesk Architectural Desktop 2007 |Company: Autodesk,Inc. |WEB Address: www.autodesk.com
 90
    32897
280
     0
281
     0
  0
CLASS
  1
AEC_DISP_REP_CEILING_GRID_RCP
  2
AecDbDispRepCeilingGridRcp
  3
AecArchBase50|Product Desc: Autodesk Architectural Desktop 2007 |Company: Autodesk,Inc. |WEB Address: www.autodesk.com
 90
    32897
280
     0
281
     0
  0
CLASS
  1
AEC_DISP_REP_CLIP_VOLUME_MODEL
  2
AecDbDispRepClipVolModel
  3
AecBase50|Product Desc: Autodesk Architectural Desktop 2007 |Company: Autodesk,Inc. |WEB Address: www.autodesk.com
 90
    32897
280
     0
281
     0
  0
CLASS
  1
AEC_DISP_REP_CLIP_VOLUME_PLAN
  2
AecDbDispRepClipVolPlan
  3
AecBase50|Product Desc: Autodesk Architectural Desktop 2007 |Company: Autodesk,Inc. |WEB Address: www.autodesk.com
 90
    32897
280
     0
281
     0
  0
CLASS
  1
AEC_DISP_REP_CLIP_VOLUME_RESULT_SUBDIV
  2
AecDbDispRepClipVolResSubDiv
  3
AecBase50|Product Desc: Autodesk Architectural Desktop 2007 |Company: Autodesk,Inc. |WEB Address: www.autodesk.com
 90
    32897
280
     0
281
     0
  0
CLASS
  1
AEC_DISP_REP_CLIP_VOLUME_RESULT
  2
AecDbDispRepClipVolResult
  3
AecBase50|Product Desc: Autodesk Architectural Desktop 2007 |Company: Autodesk,Inc. |WEB Address: www.autodesk.com
 90
    32897
280
     0
281
     0
  0
CLASS
  1
AEC_DISP_REP_COLUMN_GRID
  2
AecDbDispRepColumnGrid
  3
AecStructureBase50|Product Desc: Autodesk Architectural Desktop 2007 |Company: Autodesk,Inc. |WEB Address: www.autodesk.com
 90
    32897
280
     0
281
     0
  0
CLASS
  1
AEC_DISP_REP_COLUMN_GRID_MODEL
  2
AecDbDispRepColumnGridModel
  3
AecStructureBase50|Product Desc: Autodesk Architectural Desktop 2007 |Company: Autodesk,Inc. |WEB Address: www.autodesk.com
 90
    32897
280
     0
281
     0
  0
CLASS
  1
AEC_DISP_REP_CURTAIN_WALL_LAYOUT_MODEL
  2
AecDbDispRepCurtainWallLayoutModel
  3
AecArchBase50|Product Desc: Autodesk Architectural Desktop 2007 |Company: Autodesk,Inc. |WEB Address: www.autodesk.com
 90
    32897
280
     0
281
     0
  0
CLASS
  1
AEC_DISP_REP_CURTAIN_WALL_LAYOUT_PLAN
  2
AecDbDispRepCurtainWallLayoutPlan
  3
AecArchBase50|Product Desc: Autodesk Architectural Desktop 2007 |Company: Autodesk,Inc. |WEB Address: www.autodesk.com
 90
    32897
280
     0
281
     0
  0
CLASS
  1
AEC_DISP_REP_CURTAIN_WALL_UNIT_MODEL
  2
AecDbDispRepCurtainWallUnitModel
  3
AecArchBase50|Product Desc: Autodesk Architectural Desktop 2007 |Company: Autodesk,Inc. |WEB Address: www.autodesk.com
 90
    32897
280
     0
281
     0
  0
CLASS
  1
AEC_DISP_REP_CURTAIN_WALL_UNIT_PLAN
  2
AecDbDispRepCurtainWallUnitPlan
  3
AecArchBase50|Product Desc: Autodesk Architectural Desktop 2007 |Company: Autodesk,Inc. |WEB Address: www.autodesk.com
 90
    32897
280
     0
281
     0
  0
CLASS
  1
AEC_DB_DISP_REP_DIM_GROUP_PLAN
  2
AecDbDispRepDimGroupPlan
  3
AecArchDACHBase50|Product Desc: Autodesk Architectural Desktop 2007 |Company: Autodesk,Inc. |WEB Address: www.autodesk.com
 90
    32897
280
     0
281
     0
  0
CLASS
  1
AEC_DISP_REP_DOOR_MODEL
  2
AecDbDispRepDoorModel
  3
AecArchBase50|Product Desc: Autodesk Architectural Desktop 2007 |Company: Autodesk,Inc. |WEB Address: www.autodesk.com
 90
    32897
280
     0
281
     0
  0
CLASS
  1
AEC_DISP_REP_DOOR_NOMINAL
  2
AecDbDispRepDoorNominal
  3
AecArchBase50|Product Desc: Autodesk Architectural Desktop 2007 |Company: Autodesk,Inc. |WEB Address: www.autodesk.com
 90
    32897
280
     0
281
     0
  0
CLASS
  1
AEC_DISP_REP_DOOR_PLAN
  2
AecDbDispRepDoorPlan
  3
AecArchBase50|Product Desc: Autodesk Architectural Desktop 2007 |Company: Autodesk,Inc. |WEB Address: www.autodesk.com
 90
    32897
280
     0
281
     0
  0
CLASS
  1
AEC_DISP_REP_EDITINPLACEPROFILE
  2
AecDbDispRepEditInPlaceProfile
  3
AecBase50|Product Desc: Autodesk Architectural Desktop 2007 |Company: Autodesk,Inc. |WEB Address: www.autodesk.com
 90
    32897
280
     0
281
     0
  0
CLASS
  1
AEC_DISP_REP_ENT_REF
  2
AecDbDispRepEntRef
  3
AecBase50|Product Desc: Autodesk Architectural Desktop 2007 |Company: Autodesk,Inc. |WEB Address: www.autodesk.com
 90
    32897
280
     0
281
     0
  0
CLASS
  1
AEC_DISP_REP_LAYOUT_CURVE
  2
AecDbDispRepLayoutCurve
  3
AecBase50|Product Desc: Autodesk Architectural Desktop 2007 |Company: Autodesk,Inc. |WEB Address: www.autodesk.com
 90
    32897
280
     0
281
     0
  0
CLASS
  1
AEC_DISP_REP_LAYOUT_GRID2D
  2
AecDbDispRepLayoutGrid2d
  3
AecBase50|Product Desc: Autodesk Architectural Desktop 2007 |Company: Autodesk,Inc. |WEB Address: www.autodesk.com
 90
    32897
280
     0
281
     0
  0
CLASS
  1
AEC_DISP_REP_LAYOUT_GRID3D
  2
AecDbDispRepLayoutGrid3d
  3
AecBase50|Product Desc: Autodesk Architectural Desktop 2007 |Company: Autodesk,Inc. |WEB Address: www.autodesk.com
 90
    32897
280
     0
281
     0
  0
CLASS
  1
AEC_DISP_REP_MASKBLOCK_REF
  2
AecDbDispRepMaskBlockRef
  3
AecBase50|Product Desc: Autodesk Architectural Desktop 2007 |Company: Autodesk,Inc. |WEB Address: www.autodesk.com
 90
    32897
280
     0
281
     0
  0
CLASS
  1
AEC_DISP_REP_MASKBLOCK_REF_RCP
  2
AecDbDispRepMaskBlockRefRcp
  3
AecArchBase50|Product Desc: Autodesk Architectural Desktop 2007 |Company: Autodesk,Inc. |WEB Address: www.autodesk.com
 90
    32897
280
     0
281
     0
  0
CLASS
  1
AEC_DISP_REP_MASS_ELEM_MODEL
  2
AecDbDispRepMassElemModel
  3
AecBaseEx50|Product Desc: Autodesk Architectural Desktop 2007 |Company: Autodesk,Inc. |WEB Address: www.autodesk.com
 90
    32897
280
     0
281
     0
  0
CLASS
  1
AEC_DISP_REP_MASS_ELEM_SCHEM
  2
AecDbDispRepMassElemSchem
  3
AecBaseEx50|Product Desc: Autodesk Architectural Desktop 2007 |Company: Autodesk,Inc. |WEB Address: www.autodesk.com
 90
    32897
280
     0
281
     0
  0
CLASS
  1
AEC_DISP_REP_MASS_GROUP_MODEL
  2
AecDbDispRepMassGroupModel
  3
AecBaseEx50|Product Desc: Autodesk Architectural Desktop 2007 |Company: Autodesk,Inc. |WEB Address: www.autodesk.com
 90
    32897
280
     0
281
     0
  0
CLASS
  1
AEC_DISP_REP_MASS_GROUP_PLAN
  2
AecDbDispRepMassGroupPlan
  3
AecBaseEx50|Product Desc: Autodesk Architectural Desktop 2007 |Company: Autodesk,Inc. |WEB Address: www.autodesk.com
 90
    32897
280
     0
281
     0
  0
CLASS
  1
AEC_DISP_REP_MATERIAL
  2
AecDbDispRepMaterial
  3
AecBase50|Product Desc: Autodesk Architectural Desktop 2007 |Company: Autodesk,Inc. |WEB Address: www.autodesk.com
 90
    32897
280
     0
281
     0
  0
CLASS
  1
AEC_DISP_REP_MVBLOCK_REF
  2
AecDbDispRepMvBlockRef
  3
AecBase50|Product Desc: Autodesk Architectural Desktop 2007 |Company: Autodesk,Inc. |WEB Address: www.autodesk.com
 90
    32897
280
     0
281
     0
  0
CLASS
  1
AEC_DISP_REP_MVBLOCK_REF_MODEL
  2
AecDbDispRepMvBlockRefModel
  3
AecBase50|Product Desc: Autodesk Architectural Desktop 2007 |Company: Autodesk,Inc. |WEB Address: www.autodesk.com
 90
    32897
280
     0
281
     0
  0
CLASS
  1
AEC_DISP_REP_OPENING
  2
AecDbDispRepOpening
  3
AecArchBase50|Product Desc: Autodesk Architectural Desktop 2007 |Company: Autodesk,Inc. |WEB Address: www.autodesk.com
 90
    32897
280
     0
281
     0
  0
CLASS
  1
AEC_DISP_REP_OPENING_MODEL
  2
AecDbDispRepOpeningModel
  3
AecArchBase50|Product Desc: Autodesk Architectural Desktop 2007 |Company: Autodesk,Inc. |WEB Address: www.autodesk.com
 90
    32897
280
     0
281
     0
  0
CLASS
  1
AEC_DISP_REP_POLYGON_MODEL
  2
AecDbDispRepPolygonModel
  3
AecBaseEx50|Product Desc: Autodesk Architectural Desktop 2007 |Company: Autodesk,Inc. |WEB Address: www.autodesk.com
 90
    32897
280
     0
281
     0
  0
CLASS
  1
AEC_DISP_REP_RAILING_MODEL
  2
AecDbDispRepRailingModel
  3
AecArchBase50|Product Desc: Autodesk Architectural Desktop 2007 |Company: Autodesk,Inc. |WEB Address: www.autodesk.com
 90
    32897
280
     0
281
     0
  0
CLASS
  1
AEC_DISP_REP_RAILING_PLAN
  2
AecDbDispRepRailingPlan
  3
AecArchBase50|Product Desc: Autodesk Architectural Desktop 2007 |Company: Autodesk,Inc. |WEB Address: www.autodesk.com
 90
    32897
280
     0
281
     0
  0
CLASS
  1
AEC_DISP_REP_ROOF_MODEL
  2
AecDbDispRepRoofModel
  3
AecArchBase50|Product Desc: Autodesk Architectural Desktop 2007 |Company: Autodesk,Inc. |WEB Address: www.autodesk.com
 90
    32897
280
     0
281
     0
  0
CLASS
  1
AEC_DISP_REP_ROOF_PLAN
  2
AecDbDispRepRoofPlan
  3
AecArchBase50|Product Desc: Autodesk Architectural Desktop 2007 |Company: Autodesk,Inc. |WEB Address: www.autodesk.com
 90
    32897
280
     0
281
     0
  0
CLASS
  1
AEC_DISP_REP_ROOFSLAB_MODEL
  2
AecDbDispRepRoofSlabModel
  3
AecArchBase50|Product Desc: Autodesk Architectural Desktop 2007 |Company: Autodesk,Inc. |WEB Address: www.autodesk.com
 90
    32897
280
     0
281
     0
  0
CLASS
  1
AEC_DISP_REP_ROOFSLAB_PLAN
  2
AecDbDispRepRoofSlabPlan
  3
AecArchBase50|Product Desc: Autodesk Architectural Desktop 2007 |Company: Autodesk,Inc. |WEB Address: www.autodesk.com
 90
    32897
280
     0
281
     0
  0
CLASS
  1
AEC_DISP_REP_SCHEDULE_TABLE
  2
AecDbDispRepScheduleTable
  3
AecSchedule50|Product Desc: Autodesk Architectural Desktop 2007 |Company: Autodesk,Inc. |WEB Address: www.autodesk.com
 90
    32897
280
     0
281
     0
  0
CLASS
  1
AEC_DISP_REP_SLAB_MODEL
  2
AecDbDispRepSlabModel
  3
AecArchBase50|Product Desc: Autodesk Architectural Desktop 2007 |Company: Autodesk,Inc. |WEB Address: www.autodesk.com
 90
    32897
280
     0
281
     0
  0
CLASS
  1
AEC_DISP_REP_SLAB_PLAN
  2
AecDbDispRepSlabPlan
  3
AecArchBase50|Product Desc: Autodesk Architectural Desktop 2007 |Company: Autodesk,Inc. |WEB Address: www.autodesk.com
 90
    32897
280
     0
281
     0
  0
CLASS
  1
AEC_DISP_REP_SLICE
  2
AecDbDispRepSlice
  3
AecBase50|Product Desc: Autodesk Architectural Desktop 2007 |Company: Autodesk,Inc. |WEB Address: www.autodesk.com
 90
    32897
280
     0
281
     0
  0
CLASS
  1
AEC_DISP_REP_SPACE_BOUNDARY_MODEL
  2
AecDbDispRepSpaceBoundaryModel
  3
AecArchBase50|Product Desc: Autodesk Architectural Desktop 2007 |Company: Autodesk,Inc. |WEB Address: www.autodesk.com
 90
    32897
280
     0
281
     0
  0
CLASS
  1
AEC_DISP_REP_SPACE_BOUNDARY_PLAN
  2
AecDbDispRepSpaceBoundaryPlan
  3
AecArchBase50|Product Desc: Autodesk Architectural Desktop 2007 |Company: Autodesk,Inc. |WEB Address: www.autodesk.com
 90
    32897
280
     0
281
     0
  0
CLASS
  1
AEC_DISP_REP_SPACE_BOUNDARY_SCHEM
  2
AecDbDispRepSpaceBoundarySketch
  3
AecArchBase50|Product Desc: Autodesk Architectural Desktop 2007 |Company: Autodesk,Inc. |WEB Address: www.autodesk.com
 90
    32897
280
     0
281
     0
  0
CLASS
  1
AEC_DISP_REP_SPACE_MODEL
  2
AecDbDispRepSpaceModel
  3
AecArchBase50|Product Desc: Autodesk Architectural Desktop 2007 |Company: Autodesk,Inc. |WEB Address: www.autodesk.com
 90
    32897
280
     0
281
     0
  0
CLASS
  1
AEC_DISP_REP_SPACE_PLAN
  2
AecDbDispRepSpacePlan
  3
AecArchBase50|Product Desc: Autodesk Architectural Desktop 2007 |Company: Autodesk,Inc. |WEB Address: www.autodesk.com
 90
    32897
280
     0
281
     0
  0
CLASS
  1
AEC_DISP_REP_STAIR_MODEL
  2
AecDbDispRepStairModel
  3
AecArchBase50|Product Desc: Autodesk Architectural Desktop 2007 |Company: Autodesk,Inc. |WEB Address: www.autodesk.com
 90
    32897
280
     0
281
     0
  0
CLASS
  1
AEC_DISP_REP_STAIR_PLAN
  2
AecDbDispRepStairPlan
  3
AecArchBase50|Product Desc: Autodesk Architectural Desktop 2007 |Company: Autodesk,Inc. |WEB Address: www.autodesk.com
 90
    32897
280
     0
281
     0
  0
CLASS
  1
AEC_DISP_REP_WALL_GRAPH
  2
AecDbDispRepWallGraph
  3
AecArchBase50|Product Desc: Autodesk Architectural Desktop 2007 |Company: Autodesk,Inc. |WEB Address: www.autodesk.com
 90
    32897
280
     0
281
     0
  0
CLASS
  1
AEC_DISP_REP_WALL_MODEL
  2
AecDbDispRepWallModel
  3
AecArchBase50|Product Desc: Autodesk Architectural Desktop 2007 |Company: Autodesk,Inc. |WEB Address: www.autodesk.com
 90
    32897
280
     0
281
     0
  0
CLASS
  1
AEC_DISP_REP_WALL_PLAN
  2
AecDbDispRepWallPlan
  3
AecArchBase50|Product Desc: Autodesk Architectural Desktop 2007 |Company: Autodesk,Inc. |WEB Address: www.autodesk.com
 90
    32897
280
     0
281
     0
  0
CLASS
  1
AEC_DISP_REP_WALL_SCHEM
  2
AecDbDispRepWallSchem
  3
AecArchBase50|Product Desc: Autodesk Architectural Desktop 2007 |Company: Autodesk,Inc. |WEB Address: www.autodesk.com
 90
    32897
280
     0
281
     0
  0
CLASS
  1
AEC_DISP_REP_WINDOW_ASSEMBLY_MODEL
  2
AecDbDispRepWindowAssemblyModel
  3
AecArchBase50|Product Desc: Autodesk Architectural Desktop 2007 |Company: Autodesk,Inc. |WEB Address: www.autodesk.com
 90
    32897
280
     0
281
     0
  0
CLASS
  1
AEC_DISP_REP_WINDOW_ASSEMBLY_PLAN
  2
AecDbDispRepWindowAssemblyPlan
  3
AecArchBase50|Product Desc: Autodesk Architectural Desktop 2007 |Company: Autodesk,Inc. |WEB Address: www.autodesk.com
 90
    32897
280
     0
281
     0
  0
CLASS
  1
AEC_AECDBDISPREPWINDOWASSEMBLYPLAN100
  2
AecDbDispRepWindowAssemblyPlan100
  3
AecArchDACHBase50|Product Desc: Autodesk Architectural Desktop 2007 |Company: Autodesk,Inc. |WEB Address: www.autodesk.com
 90
    32897
280
     0
281
     0
  0
CLASS
  1
AEC_DISP_REP_WINDOW_MODEL
  2
AecDbDispRepWindowModel
  3
AecArchBase50|Product Desc: Autodesk Architectural Desktop 2007 |Company: Autodesk,Inc. |WEB Address: www.autodesk.com
 90
    32897
280
     0
281
     0
  0
CLASS
  1
AEC_DISP_REP_WINDOW_NOMINAL
  2
AecDbDispRepWindowNominal
  3
AecArchBase50|Product Desc: Autodesk Architectural Desktop 2007 |Company: Autodesk,Inc. |WEB Address: www.autodesk.com
 90
    32897
280
     0
281
     0
  0
CLASS
  1
AEC_DISP_REP_WINDOW_PLAN
  2
AecDbDispRepWindowPlan
  3
AecArchBase50|Product Desc: Autodesk Architectural Desktop 2007 |Company: Autodesk,Inc. |WEB Address: www.autodesk.com
 90
    32897
280
     0
281
     0
  0
CLASS
  1
AECS_DISP_REP_MEMBER_LOGICAL
  2
AecsDbDispRepMemberLogical
  3
AecStructureBase50|Product Desc: Autodesk Architectural Desktop 2007 |Company: Autodesk,Inc. |WEB Address: www.autodesk.com
 90
    32897
280
     0
281
     0
  0
CLASS
  1
AECS_DISP_REP_MEMBER_MODEL_DESIGN
  2
AecsDbDispRepMemberModelDesign
  3
AecStructureBase50|Product Desc: Autodesk Architectural Desktop 2007 |Company: Autodesk,Inc. |WEB Address: www.autodesk.com
 90
    32897
280
     0
281
     0
  0
CLASS
  1
AECS_DISP_REP_MEMBER_PLAN_DESIGN
  2
AecsDbDispRepMemberPlanDesign
  3
AecStructureBase50|Product Desc: Autodesk Architectural Desktop 2007 |Company: Autodesk,Inc. |WEB Address: www.autodesk.com
 90
    32897
280
     0
281
     0
  0
CLASS
  1
AEC_DISP_PROPS_ENT
  2
AecDbDispPropsEnt
  3
AecBase50|Product Desc: Autodesk Architectural Desktop 2007 |Company: Autodesk,Inc. |WEB Address: www.autodesk.com
 90
    32897
280
     0
281
     0
  0
CLASS
  1
AEC_DISP_PROPS_CLIP_VOLUME
  2
AecDbDispPropsClipVol
  3
AecBase50|Product Desc: Autodesk Architectural Desktop 2007 |Company: Autodesk,Inc. |WEB Address: www.autodesk.com
 90
    32897
280
     0
281
     0
  0
CLASS
  1
AEC_DISP_PROPS_SLICE
  2
AecDbDispPropsSlice
  3
AecBase50|Product Desc: Autodesk Architectural Desktop 2007 |Company: Autodesk,Inc. |WEB Address: www.autodesk.com
 90
    32897
280
     0
281
     0
  0
CLASS
  1
AEC_DISP_PROPS_ROOFSLAB_PLAN
  2
AecDbDispPropsRoofSlabPlan
  3
AecArchBase50|Product Desc: Autodesk Architectural Desktop 2007 |Company: Autodesk,Inc. |WEB Address: www.autodesk.com
 90
    32897
280
     0
281
     0
  0
CLASS
  1
AEC_DISP_PROPS_GRID_ASSEMBLY_MODEL
  2
AecDbDispPropsGridAssemblyModel
  3
AecArchBase50|Product Desc: Autodesk Architectural Desktop 2007 |Company: Autodesk,Inc. |WEB Address: www.autodesk.com
 90
    32897
280
     0
281
     0
  0
CLASS
  1
AEC_DISP_PROPS_ROOF
  2
AecDbDispPropsRoof
  3
AecArchBase50|Product Desc: Autodesk Architectural Desktop 2007 |Company: Autodesk,Inc. |WEB Address: www.autodesk.com
 90
    32897
280
     0
281
     0
  0
CLASS
  1
AEC_DISP_PROPS_SPACE_MODEL
  2
AecDbDispPropsSpaceModel
  3
AecArchBase50|Product Desc: Autodesk Architectural Desktop 2007 |Company: Autodesk,Inc. |WEB Address: www.autodesk.com
 90
    32897
280
     0
281
     0
  0
CLASS
  1
AEC_DISP_PROPS_EDITINPLACEPROFILE_MODEL
  2
AecDbDispPropsEditInPlaceProfile
  3
AecBase50|Product Desc: Autodesk Architectural Desktop 2007 |Company: Autodesk,Inc. |WEB Address: www.autodesk.com
 90
    32897
280
     0
281
     0
  0
CLASS
  1
AEC_DISP_PROPS_DOOR
  2
AecDbDispPropsDoor
  3
AecArchBase50|Product Desc: Autodesk Architectural Desktop 2007 |Company: Autodesk,Inc. |WEB Address: www.autodesk.com
 90
    32897
280
     0
281
     0
  0
CLASS
  1
AEC_DISP_PROPS_MASKBLOCK
  2
AecDbDispPropsMaskBlock
  3
AecBase50|Product Desc: Autodesk Architectural Desktop 2007 |Company: Autodesk,Inc. |WEB Address: www.autodesk.com
 90
    32897
280
     0
281
     0
  0
CLASS
  1
AEC_DISP_PROPS_SPACE_PLAN
  2
AecDbDispPropsSpacePlan
  3
AecArchBase50|Product Desc: Autodesk Architectural Desktop 2007 |Company: Autodesk,Inc. |WEB Address: www.autodesk.com
 90
    32897
280
     0
281
     0
  0
CLASS
  1
AEC_DISP_PROPS_RAILING_PLAN
  2
AecDbDispPropsRailingPlan
  3
AecArchBase50|Product Desc: Autodesk Architectural Desktop 2007 |Company: Autodesk,Inc. |WEB Address: www.autodesk.com
 90
    32897
280
     0
281
     0
  0
CLASS
  1
AEC_DISP_PROPS_LAYOUT_GRID2D
  2
AecDbDispPropsLayoutGrid2d
  3
AecBase50|Product Desc: Autodesk Architectural Desktop 2007 |Company: Autodesk,Inc. |WEB Address: www.autodesk.com
 90
    32897
280
     0
281
     0
  0
CLASS
  1
AEC_DISP_PROPS_CLIP_VOLUME_RESULT
  2
AecDbDispPropsClipVolResSubDiv
  3
AecBase50|Product Desc: Autodesk Architectural Desktop 2007 |Company: Autodesk,Inc. |WEB Address: www.autodesk.com
 90
    32897
280
     0
281
     0
  0
CLASS
  1
AEC_DISP_PROPS_STAIR_MODEL
  2
AecDbDispPropsStairModel
  3
AecArchBase50|Product Desc: Autodesk Architectural Desktop 2007 |Company: Autodesk,Inc. |WEB Address: www.autodesk.com
 90
    32897
280
     0
281
     0
  0
CLASS
  1
AEC_DISP_PROPS_LAYOUT_CURVE
  2
AecDbDispPropsLayoutCurve
  3
AecBase50|Product Desc: Autodesk Architectural Desktop 2007 |Company: Autodesk,Inc. |WEB Address: www.autodesk.com
 90
    32897
280
     0
281
     0
  0
CLASS
  1
AEC_DISP_PROPS_POLYGON_MODEL
  2
AecDbDispPropsPolygonModel
  3
AecBaseEx50|Product Desc: Autodesk Architectural Desktop 2007 |Company: Autodesk,Inc. |WEB Address: www.autodesk.com
 90
    32897
280
     0
281
     0
  0
CLASS
  1
AEC_DISP_PROPS_MASS_GROUP
  2
AecDbDispPropsMassGroup
  3
AecBaseEx50|Product Desc: Autodesk Architectural Desktop 2007 |Company: Autodesk,Inc. |WEB Address: www.autodesk.com
 90
    32897
280
     0
281
     0
  0
CLASS
  1
AEC_DISP_PROPS_STAIR_PLAN
  2
AecDbDispPropsStairPlan
  3
AecArchBase50|Product Desc: Autodesk Architectural Desktop 2007 |Company: Autodesk,Inc. |WEB Address: www.autodesk.com
 90
    32897
280
     0
281
     0
  0
CLASS
  1
AEC_DISP_PROPS_OPENING
  2
AecDbDispPropsOpening
  3
AecArchBase50|Product Desc: Autodesk Architectural Desktop 2007 |Company: Autodesk,Inc. |WEB Address: www.autodesk.com
 90
    32897
280
     0
281
     0
  0
CLASS
  1
AEC_DISP_PROPS_WALL_GRAPH
  2
AecDbDispPropsWallGraph
  3
AecArchBase50|Product Desc: Autodesk Architectural Desktop 2007 |Company: Autodesk,Inc. |WEB Address: www.autodesk.com
 90
    32897
280
     0
281
     0
  0
CLASS
  1
AEC_DISP_PROPS_DOOR_NOMINAL
  2
AecDbDispPropsDoorNominal
  3
AecArchBase50|Product Desc: Autodesk Architectural Desktop 2007 |Company: Autodesk,Inc. |WEB Address: www.autodesk.com
 90
    32897
280
     0
281
     0
  0
CLASS
  1
AEC_DISP_PROPS_SLAB
  2
AecDbDispPropsSlab
  3
AecArchBase50|Product Desc: Autodesk Architectural Desktop 2007 |Company: Autodesk,Inc. |WEB Address: www.autodesk.com
 90
    32897
280
     0
281
     0
  0
CLASS
  1
AEC_DISP_PROPS_WALL_MODEL
  2
AecDbDispPropsWallModel
  3
AecArchBase50|Product Desc: Autodesk Architectural Desktop 2007 |Company: Autodesk,Inc. |WEB Address: www.autodesk.com
 90
    32897
280
     0
281
     0
  0
CLASS
  1
AEC_DISP_PROPS_MATERIAL
  2
AecDbDispPropsMaterial
  3
AecBase50|Product Desc: Autodesk Architectural Desktop 2007 |Company: Autodesk,Inc. |WEB Address: www.autodesk.com
 90
    32897
280
     0
281
     0
  0
CLASS
  1
AEC_DISP_PROPS_WINDOW
  2
AecDbDispPropsWindow
  3
AecArchBase50|Product Desc: Autodesk Architectural Desktop 2007 |Company: Autodesk,Inc. |WEB Address: www.autodesk.com
 90
    32897
280
     0
281
     0
  0
CLASS
  1
AEC_DISP_PROPS_LAYOUT_GRID3D
  2
AecDbDispPropsLayoutGrid3d
  3
AecBase50|Product Desc: Autodesk Architectural Desktop 2007 |Company: Autodesk,Inc. |WEB Address: www.autodesk.com
 90
    32897
280
     0
281
     0
  0
CLASS
  1
AEC_DISP_PROPS_GRID_ASSEMBLY_PLAN
  2
AecDbDispPropsGridAssemblyPlan
  3
AecArchBase50|Product Desc: Autodesk Architectural Desktop 2007 |Company: Autodesk,Inc. |WEB Address: www.autodesk.com
 90
    32897
280
     0
281
     0
  0
CLASS
  1
AEC_DISP_PROPS_WALL_SCHEM
  2
AecDbDispPropsWallSchem
  3
AecArchBase50|Product Desc: Autodesk Architectural Desktop 2007 |Company: Autodesk,Inc. |WEB Address: www.autodesk.com
 90
    32897
280
     0
281
     0
  0
CLASS
  1
AEC_DISP_PROPS_WALL_PLAN
  2
AecDbDispPropsWallPlan
  3
AecArchBase50|Product Desc: Autodesk Architectural Desktop 2007 |Company: Autodesk,Inc. |WEB Address: www.autodesk.com
 90
    32897
280
     0
281
     0
  0
CLASS
  1
AEC_DISP_PROPS_SPACE_BOUNDARY
  2
AecDbDispPropsSpaceBoundary
  3
AecArchBase50|Product Desc: Autodesk Architectural Desktop 2007 |Company: Autodesk,Inc. |WEB Address: www.autodesk.com
 90
    32897
280
     0
281
     0
  0
CLASS
  1
AEC_DISP_PROPS_SLAB_PLAN
  2
AecDbDispPropsSlabPlan
  3
AecArchBase50|Product Desc: Autodesk Architectural Desktop 2007 |Company: Autodesk,Inc. |WEB Address: www.autodesk.com
 90
    32897
280
     0
281
     0
  0
CLASS
  1
AEC_DISP_PROPS_RAILING_MODEL
  2
AecDbDispPropsRailingModel
  3
AecArchBase50|Product Desc: Autodesk Architectural Desktop 2007 |Company: Autodesk,Inc. |WEB Address: www.autodesk.com
 90
    32897
280
     0
281
     0
  0
CLASS
  1
AEC_DISP_PROPS_MASS_ELEM_MODEL
  2
AecDbDispPropsMassElem
  3
AecBaseEx50|Product Desc: Autodesk Architectural Desktop 2007 |Company: Autodesk,Inc. |WEB Address: www.autodesk.com
 90
    32897
280
     0
281
     0
  0
CLASS
  1
AEC_DISP_PROPS_DIM
  2
AecDbDispPropsDimGroup
  3
AecArchDACHBase50|Product Desc: Autodesk Architectural Desktop 2007 |Company: Autodesk,Inc. |WEB Address: www.autodesk.com
 90
    32897
280
     0
281
     0
  0
CLASS
  1
AEC_DISP_PROPS_ROOFSLAB
  2
AecDbDispPropsRoofSlab
  3
AecArchBase50|Product Desc: Autodesk Architectural Desktop 2007 |Company: Autodesk,Inc. |WEB Address: www.autodesk.com
 90
    32897
280
     0
281
     0
  0
CLASS
  1
AEC_DISP_PROPS_ENT_REF
  2
AecDbDispPropsEntRef
  3
AecBase50|Product Desc: Autodesk Architectural Desktop 2007 |Company: Autodesk,Inc. |WEB Address: www.autodesk.com
 90
    32897
280
     0
281
     0
  0
CLASS
  1
AEC_DISP_PROPS_2D_SECTION
  2
AecDbDispProps2dSection
  3
AecBase50|Product Desc: Autodesk Architectural Desktop 2007 |Company: Autodesk,Inc. |WEB Address: www.autodesk.com
 90
    32897
280
     0
281
     0
  0
CLASS
  1
AECS_DISP_PROPS_MEMBER_LOGICAL
  2
AecsDbDispPropsMemberLogical
  3
AecStructureBase50|Product Desc: Autodesk Architectural Desktop 2007 |Company: Autodesk,Inc. |WEB Address: www.autodesk.com
 90
    32897
280
     0
281
     0
  0
CLASS
  1
AEC_DISP_PROPS_AREA_DECOMPOSED
  2
AecDbDispPropsAreaDecomposed
  3
AecAreaCalculationBase50|Product Desc: Autodesk Architectural Desktop 2007 |Company: Autodesk,Inc. |WEB Address: www.autodesk.com
 90
    32897
280
     0
281
     0
  0
CLASS
  1
AEC_DISP_PROPS_CAMERA
  2
AecDbDispPropsCamera
  3
AecBase50|Product Desc: Autodesk Architectural Desktop 2007 |Company: Autodesk,Inc. |WEB Address: www.autodesk.com
 90
    32897
280
     0
281
     0
  0
CLASS
  1
AECS_DISP_PROPS_MEMBER
  2
AecsDbDispPropsMember
  3
AecStructureBase50|Product Desc: Autodesk Architectural Desktop 2007 |Company: Autodesk,Inc. |WEB Address: www.autodesk.com
 90
    32897
280
     0
281
     0
  0
CLASS
  1
AECS_DISP_PROPS_MEMBER_PLAN
  2
AecsDbDispPropsMemberPlan
  3
AecStructureBase50|Product Desc: Autodesk Architectural Desktop 2007 |Company: Autodesk,Inc. |WEB Address: www.autodesk.com
 90
    32897
280
     0
281
     0
  0
CLASS
  1
AEC_DISP_PROPS_AREAGROUP
  2
AecDbDispPropsAreaGroup
  3
AecAreaCalculationBase50|Product Desc: Autodesk Architectural Desktop 2007 |Company: Autodesk,Inc. |WEB Address: www.autodesk.com
 90
    32897
280
     0
281
     0
  0
CLASS
  1
AEC_DISP_PROPS_WINDOW_NOMINAL
  2
AecDbDispPropsWindowNominal
  3
AecArchBase50|Product Desc: Autodesk Architectural Desktop 2007 |Company: Autodesk,Inc. |WEB Address: www.autodesk.com
 90
    32897
280
     0
281
     0
  0
CLASS
  1
AEC_DISP_PROPS_AREA
  2
AecDbDispPropsArea
  3
AecAreaCalculationBase50|Product Desc: Autodesk Architectural Desktop 2007 |Company: Autodesk,Inc. |WEB Address: www.autodesk.com
 90
    32897
280
     0
281
     0
  0
CLASS
  1
AEC_DISP_PROPS_SCHEDULE_TABLE
  2
AecDbDispPropsScheduleTable
  3
AecSchedule50|Product Desc: Autodesk Architectural Desktop 2007 |Company: Autodesk,Inc. |WEB Address: www.autodesk.com
 90
    32897
280
     0
281
     0
  0
CLASS
  1
AEC_LAYERKEY_STYLE
  2
AecDbLayerKeyStyle
  3
AecBase50|Product Desc: Autodesk Architectural Desktop 2007 |Company: Autodesk,Inc. |WEB Address: www.autodesk.com
 90
    32897
280
     0
281
     0
  0
CLASS
  1
AEC_VARS_ARCHBASE
  2
AecDbVarsArchBase
  3
AecArchBase50|Product Desc: Autodesk Architectural Desktop 2007 |Company: Autodesk,Inc. |WEB Address: www.autodesk.com
 90
    32897
280
     0
281
     0
  0
CLASS
  1
AEC_VARS_MUNICH
  2
AecDbVarsMunich
  3
AecArchDACHBase50|Product Desc: Autodesk Architectural Desktop 2007 |Company: Autodesk,Inc. |WEB Address: www.autodesk.com
 90
    32897
280
     0
281
     0
  0
CLASS
  1
AEC_NOTIFICATION_TRACKER
  2
AecDbNotificationTracker
  3
AecBase50|Product Desc: Autodesk Architectural Desktop 2007 |Company: Autodesk,Inc. |WEB Address: www.autodesk.com
 90
    32897
280
     0
281
     0
  0
CLASS
  1
AEC_DISP_REP_ANCHOR
  2
AecDbDispRepAnchor
  3
AecBase50|Product Desc: Autodesk Architectural Desktop 2007 |Company: Autodesk,Inc. |WEB Address: www.autodesk.com
 90
    32897
280
     0
281
     0
  0
CLASS
  1
AEC_DISP_REP_POLYGON_TRUECOLOUR
  2
AecDbDispRepPolygonTrueColour
  3
AecBaseEx50|Product Desc: Autodesk Architectural Desktop 2007 |Company: Autodesk,Inc. |WEB Address: www.autodesk.com
 90
    32897
280
     0
281
     0
  0
CLASS
  1
AEC_DISP_PROPS_POLYGON_TRUECOLOUR
  2
AecDbDispPropsPolygonTrueColour
  3
AecBaseEx50|Product Desc: Autodesk Architectural Desktop 2007 |Company: Autodesk,Inc. |WEB Address: www.autodesk.com
 90
    32897
280
     0
281
     0
  0
CLASS
  1
AEC_DISP_REP_BDG_ELEVLINE_RCP
  2
AecDbDispRepBdgElevLineRcp
  3
AecArchBase50|Product Desc: Autodesk Architectural Desktop 2007 |Company: Autodesk,Inc. |WEB Address: www.autodesk.com
 90
    32897
280
     0
281
     0
  0
CLASS
  1
AEC_DISP_REP_BDG_SECTIONLINE_RCP
  2
AecDbDispRepBdgSectionLineRcp
  3
AecArchBase50|Product Desc: Autodesk Architectural Desktop 2007 |Company: Autodesk,Inc. |WEB Address: www.autodesk.com
 90
    32897
280
     0
281
     0
  0
CLASS
  1
AEC_DISP_REP_BDG_SECTION_MODEL
  2
AecDbDispRepBdgSectionModel
  3
AecArchBase50|Product Desc: Autodesk Architectural Desktop 2007 |Company: Autodesk,Inc. |WEB Address: www.autodesk.com
 90
    32897
280
     0
281
     0
  0
CLASS
  1
AEC_DISP_REP_DOOR_ELEV
  2
AecDbDispRepDoorElev
  3
AecArchBase50|Product Desc: Autodesk Architectural Desktop 2007 |Company: Autodesk,Inc. |WEB Address: www.autodesk.com
 90
    32897
280
     0
281
     0
  0
CLASS
  1
AEC_DISP_REP_DOOR_RCP
  2
AecDbDispRepDoorRcp
  3
AecArchBase50|Product Desc: Autodesk Architectural Desktop 2007 |Company: Autodesk,Inc. |WEB Address: www.autodesk.com
 90
    32897
280
     0
281
     0
  0
CLASS
  1
AEC_DISP_REP_DOOR_THRESHOLD_PLAN
  2
AecDbDispRepDoorThresholdPlan
  3
AecArchBase50|Product Desc: Autodesk Architectural Desktop 2007 |Company: Autodesk,Inc. |WEB Address: www.autodesk.com
 90
    32897
280
     0
281
     0
  0
CLASS
  1
AEC_DISP_PROPS_DOOR_THRESHOLD_PLAN
  2
AecDbDispPropsDoorThresholdPlan
  3
AecArchBase50|Product Desc: Autodesk Architectural Desktop 2007 |Company: Autodesk,Inc. |WEB Address: www.autodesk.com
 90
    32897
280
     0
281
     0
  0
CLASS
  1
AEC_DISP_REP_MASS_ELEM_RCP
  2
AecDbDispRepMassElemRcp
  3
AecArchBase50|Product Desc: Autodesk Architectural Desktop 2007 |Company: Autodesk,Inc. |WEB Address: www.autodesk.com
 90
    32897
280
     0
281
     0
  0
CLASS
  1
AEC_DISP_REP_MASS_GROUP_RCP
  2
AecDbDispRepMassGroupRcp
  3
AecArchBase50|Product Desc: Autodesk Architectural Desktop 2007 |Company: Autodesk,Inc. |WEB Address: www.autodesk.com
 90
    32897
280
     0
281
     0
  0
CLASS
  1
AEC_DISP_REP_MVBLOCK_REF_RCP
  2
AecDbDispRepMvBlockRefRcp
  3
AecArchBase50|Product Desc: Autodesk Architectural Desktop 2007 |Company: Autodesk,Inc. |WEB Address: www.autodesk.com
 90
    32897
280
     0
281
     0
  0
CLASS
  1
AEC_DISP_REP_ROOF_RCP
  2
AecDbDispRepRoofRcp
  3
AecArchBase50|Product Desc: Autodesk Architectural Desktop 2007 |Company: Autodesk,Inc. |WEB Address: www.autodesk.com
 90
    32897
280
     0
281
     0
  0
CLASS
  1
AEC_DISP_REP_SPACE_BOUNDARY_DIAGRAM
  2
AecDbDispRepSpaceBoundaryDgrm
  3
AecArchBase50|Product Desc: Autodesk Architectural Desktop 2007 |Company: Autodesk,Inc. |WEB Address: www.autodesk.com
 90
    32897
280
     0
281
     0
  0
CLASS
  1
AEC_DISP_REP_SPACE_RCP
  2
AecDbDispRepSpaceRcp
  3
AecArchBase50|Product Desc: Autodesk Architectural Desktop 2007 |Company: Autodesk,Inc. |WEB Address: www.autodesk.com
 90
    32897
280
     0
281
     0
  0
CLASS
  1
AEC_DISP_REP_SPACE_VOLUME
  2
AecDbDispRepSpaceVolume
  3
AecArchBase50|Product Desc: Autodesk Architectural Desktop 2007 |Company: Autodesk,Inc. |WEB Address: www.autodesk.com
 90
    32897
280
     0
281
     0
  0
CLASS
  1
AEC_DISP_REP_STAIR_PLAN_OVERLAPPING
  2
AecDbDispRepStairPlanOverlapping
  3
AecArchBase50|Product Desc: Autodesk Architectural Desktop 2007 |Company: Autodesk,Inc. |WEB Address: www.autodesk.com
 90
    32897
280
     0
281
     0
  0
CLASS
  1
AEC_DISP_PROPS_STAIR_PLAN_OVERLAPPING
  2
AecDbDispPropsStairPlanOverlapping
  3
AecArchBase50|Product Desc: Autodesk Architectural Desktop 2007 |Company: Autodesk,Inc. |WEB Address: www.autodesk.com
 90
    32897
280
     0
281
     0
  0
CLASS
  1
AEC_DISP_REP_STAIR_RCP
  2
AecDbDispRepStairRcp
  3
AecArchBase50|Product Desc: Autodesk Architectural Desktop 2007 |Company: Autodesk,Inc. |WEB Address: www.autodesk.com
 90
    32897
280
     0
281
     0
  0
CLASS
  1
AEC_DISP_REP_WALL_RCP
  2
AecDbDispRepWallRcp
  3
AecArchBase50|Product Desc: Autodesk Architectural Desktop 2007 |Company: Autodesk,Inc. |WEB Address: www.autodesk.com
 90
    32897
280
     0
281
     0
  0
CLASS
  1
AEC_DISP_REP_WINDOWASSEMBLY_SILL_PLAN
  2
AecDbDispRepWindowAssemblySillPlan
  3
AecArchBase50|Product Desc: Autodesk Architectural Desktop 2007 |Company: Autodesk,Inc. |WEB Address: www.autodesk.com
 90
    32897
280
     0
281
     0
  0
CLASS
  1
AEC_DISP_PROPS_WINDOW_ASSEMBLY_SILL_PLAN
  2
AecDbDispPropsWindowAssemblySillPlan
  3
AecArchBase50|Product Desc: Autodesk Architectural Desktop 2007 |Company: Autodesk,Inc. |WEB Address: www.autodesk.com
 90
    32897
280
     0
281
     0
  0
CLASS
  1
AEC_DISP_REP_WINDOW_ELEV
  2
AecDbDispRepWindowElev
  3
AecArchBase50|Product Desc: Autodesk Architectural Desktop 2007 |Company: Autodesk,Inc. |WEB Address: www.autodesk.com
 90
    32897
280
     0
281
     0
  0
CLASS
  1
AEC_DISP_REP_WINDOW_RCP
  2
AecDbDispRepWindowRcp
  3
AecArchBase50|Product Desc: Autodesk Architectural Desktop 2007 |Company: Autodesk,Inc. |WEB Address: www.autodesk.com
 90
    32897
280
     0
281
     0
  0
CLASS
  1
AEC_DISP_REP_WINDOW_SILL_PLAN
  2
AecDbDispRepWindowSillPlan
  3
AecArchBase50|Product Desc: Autodesk Architectural Desktop 2007 |Company: Autodesk,Inc. |WEB Address: www.autodesk.com
 90
    32897
280
     0
281
     0
  0
CLASS
  1
AEC_DISP_PROPS_WINDOW_SILL_PLAN
  2
AecDbDispPropsWindowSillPlan
  3
AecArchBase50|Product Desc: Autodesk Architectural Desktop 2007 |Company: Autodesk,Inc. |WEB Address: www.autodesk.com
 90
    32897
280
     0
281
     0
  0
CLASS
  1
AEC_DISP_REP_ANCHOR_BUB_TO_GRID_RCP
  2
AecDbDispRepAnchorBubToGridRcp
  3
AecStructureBase50|Product Desc: Autodesk Architectural Desktop 2007 |Company: Autodesk,Inc. |WEB Address: www.autodesk.com
 90
    32897
280
     0
281
     0
  0
CLASS
  1
AEC_DISP_REP_COLUMN_GRID_RCP
  2
AecDbDispRepColumnGridRcp
  3
AecStructureBase50|Product Desc: Autodesk Architectural Desktop 2007 |Company: Autodesk,Inc. |WEB Address: www.autodesk.com
 90
    32897
280
     0
281
     0
  0
CLASS
  1
AECS_DISP_REP_MEMBER_ELEVATION_DESIGN
  2
AecsDbDispRepMemberElevationDesign
  3
AecStructureBase50|Product Desc: Autodesk Architectural Desktop 2007 |Company: Autodesk,Inc. |WEB Address: www.autodesk.com
 90
    32897
280
     0
281
     0
  0
CLASS
  1
AECS_DISP_PROPS_MEMBER_PROJECTED
  2
AecsDbDispPropsMemberProjected
  3
AecStructureBase50|Product Desc: Autodesk Architectural Desktop 2007 |Company: Autodesk,Inc. |WEB Address: www.autodesk.com
 90
    32897
280
     0
281
     0
  0
CLASS
  1
AECS_DISP_REP_MEMBER_ELEVATION_DETAIL
  2
AecsDbDispRepMemberElevationDetail
  3
AecStructureBase50|Product Desc: Autodesk Architectural Desktop 2007 |Company: Autodesk,Inc. |WEB Address: www.autodesk.com
 90
    32897
280
     0
281
     0
  0
CLASS
  1
AECS_DISP_REP_MEMBER_MODEL_DETAIL
  2
AecsDbDispRepMemberModelDetail
  3
AecStructureBase50|Product Desc: Autodesk Architectural Desktop 2007 |Company: Autodesk,Inc. |WEB Address: www.autodesk.com
 90
    32897
280
     0
281
     0
  0
CLASS
  1
AECS_DISP_REP_MEMBER_PLAN_DETAIL
  2
AecsDbDispRepMemberPlanDetail
  3
AecStructureBase50|Product Desc: Autodesk Architectural Desktop 2007 |Company: Autodesk,Inc. |WEB Address: www.autodesk.com
 90
    32897
280
     0
281
     0
  0
CLASS
  1
AECS_DISP_REP_MEMBER_PLAN_SKETCH
  2
AecsDbDispRepMemberPlanSketch
  3
AecStructureBase50|Product Desc: Autodesk Architectural Desktop 2007 |Company: Autodesk,Inc. |WEB Address: www.autodesk.com
 90
    32897
280
     0
281
     0
  0
CLASS
  1
AECS_DISP_PROPS_MEMBER_PLAN_SKETCH
  2
AecsDbDispPropsMemberPlanSketch
  3
AecStructureBase50|Product Desc: Autodesk Architectural Desktop 2007 |Company: Autodesk,Inc. |WEB Address: www.autodesk.com
 90
    32897
280
     0
281
     0
  0
CLASS
  1
AEC_AECDBDISPREPAREA100
  2
AecDbDispRepArea100
  3
AecArchDACHBase50|Product Desc: Autodesk Architectural Desktop 2007 |Company: Autodesk,Inc. |WEB Address: www.autodesk.com
 90
    32897
280
     0
281
     0
  0
CLASS
  1
AEC_AECDBDISPREPAREAGROUP100
  2
AecDbDispRepAreaGroup100
  3
AecArchDACHBase50|Product Desc: Autodesk Architectural Desktop 2007 |Company: Autodesk,Inc. |WEB Address: www.autodesk.com
 90
    32897
280
     0
281
     0
  0
CLASS
  1
AEC_AECDBDISPREPBDGELEVLINEPLAN100
  2
AecDbDispRepBdgElevLinePlan100
  3
AecArchDACHBase50|Product Desc: Autodesk Architectural Desktop 2007 |Company: Autodesk,Inc. |WEB Address: www.autodesk.com
 90
    32897
280
     0
281
     0
  0
CLASS
  1
AEC_AECDBDISPREPBDGSECTIONLINEPLAN100
  2
AecDbDispRepBdgSectionLinePlan100
  3
AecArchDACHBase50|Product Desc: Autodesk Architectural Desktop 2007 |Company: Autodesk,Inc. |WEB Address: www.autodesk.com
 90
    32897
280
     0
281
     0
  0
CLASS
  1
AEC_AECDBDISPREPCEILINGGRIDPLAN100
  2
AecDbDispRepCeilingGridPlan100
  3
AecArchDACHBase50|Product Desc: Autodesk Architectural Desktop 2007 |Company: Autodesk,Inc. |WEB Address: www.autodesk.com
 90
    32897
280
     0
281
     0
  0
CLASS
  1
AEC_AECDBDISPREPCOLUMNGRIDPLAN100
  2
AecDbDispRepColumnGridPlan100
  3
AecArchDACHBase50|Product Desc: Autodesk Architectural Desktop 2007 |Company: Autodesk,Inc. |WEB Address: www.autodesk.com
 90
    32897
280
     0
281
     0
  0
CLASS
  1
AEC_AECDBDISPREPCURTAINWALLLAYOUTPLAN100
  2
AecDbDispRepCurtainWallLayoutPlan100
  3
AecArchDACHBase50|Product Desc: Autodesk Architectural Desktop 2007 |Company: Autodesk,Inc. |WEB Address: www.autodesk.com
 90
    32897
280
     0
281
     0
  0
CLASS
  1
AEC_AECDBDISPREPCURTAINWALLUNITPLAN100
  2
AecDbDispRepCurtainWallUnitPlan100
  3
AecArchDACHBase50|Product Desc: Autodesk Architectural Desktop 2007 |Company: Autodesk,Inc. |WEB Address: www.autodesk.com
 90
    32897
280
     0
281
     0
  0
CLASS
  1
AEC_AECDBDISPREPMVBLOCKREFPLAN100
  2
AecDbDispRepMvBlockRefPlan100
  3
AecArchDACHBase50|Product Desc: Autodesk Architectural Desktop 2007 |Company: Autodesk,Inc. |WEB Address: www.autodesk.com
 90
    32897
280
     0
281
     0
  0
CLASS
  1
AEC_AECDBDISPREPROOFPLAN100
  2
AecDbDispRepRoofPlan100
  3
AecArchDACHBase50|Product Desc: Autodesk Architectural Desktop 2007 |Company: Autodesk,Inc. |WEB Address: www.autodesk.com
 90
    32897
280
     0
281
     0
  0
CLASS
  1
AEC_AECDBDISPREPROOFSLABPLAN100
  2
AecDbDispRepRoofSlabPlan100
  3
AecArchDACHBase50|Product Desc: Autodesk Architectural Desktop 2007 |Company: Autodesk,Inc. |WEB Address: www.autodesk.com
 90
    32897
280
     0
281
     0
  0
CLASS
  1
AEC_AECDBDISPREPSLABPLAN100
  2
AecDbDispRepSlabPlan100
  3
AecArchDACHBase50|Product Desc: Autodesk Architectural Desktop 2007 |Company: Autodesk,Inc. |WEB Address: www.autodesk.com
 90
    32897
280
     0
281
     0
  0
CLASS
  1
AEC_AECDBDISPREPSPACEBOUNDARYPLAN100
  2
AecDbDispRepSpaceBoundaryPlan100
  3
AecArchDACHBase50|Product Desc: Autodesk Architectural Desktop 2007 |Company: Autodesk,Inc. |WEB Address: www.autodesk.com
 90
    32897
280
     0
281
     0
  0
CLASS
  1
AEC_AECDBDISPREPSPACEPLAN100
  2
AecDbDispRepSpacePlan100
  3
AecArchDACHBase50|Product Desc: Autodesk Architectural Desktop 2007 |Company: Autodesk,Inc. |WEB Address: www.autodesk.com
 90
    32897
280
     0
281
     0
  0
CLASS
  1
AEC_AECDBDISPREPWALLPLAN100
  2
AecDbDispRepWallPlan100
  3
AecArchDACHBase50|Product Desc: Autodesk Architectural Desktop 2007 |Company: Autodesk,Inc. |WEB Address: www.autodesk.com
 90
    32897
280
     0
281
     0
  0
CLASS
  1
AEC_AECDBDISPREPAREA50
  2
AecDbDispRepArea50
  3
AecArchDACHBase50|Product Desc: Autodesk Architectural Desktop 2007 |Company: Autodesk,Inc. |WEB Address: www.autodesk.com
 90
    32897
280
     0
281
     0
  0
CLASS
  1
AEC_AECDBDISPREPAREAGROUP50
  2
AecDbDispRepAreaGroup50
  3
AecArchDACHBase50|Product Desc: Autodesk Architectural Desktop 2007 |Company: Autodesk,Inc. |WEB Address: www.autodesk.com
 90
    32897
280
     0
281
     0
  0
CLASS
  1
AEC_AECDBDISPREPBDGELEVLINEPLAN50
  2
AecDbDispRepBdgElevLinePlan50
  3
AecArchDACHBase50|Product Desc: Autodesk Architectural Desktop 2007 |Company: Autodesk,Inc. |WEB Address: www.autodesk.com
 90
    32897
280
     0
281
     0
  0
CLASS
  1
AEC_AECDBDISPREPBDGSECTIONLINEPLAN50
  2
AecDbDispRepBdgSectionLinePlan50
  3
AecArchDACHBase50|Product Desc: Autodesk Architectural Desktop 2007 |Company: Autodesk,Inc. |WEB Address: www.autodesk.com
 90
    32897
280
     0
281
     0
  0
CLASS
  1
AEC_AECDBDISPREPCEILINGGRIDPLAN50
  2
AecDbDispRepCeilingGridPlan50
  3
AecArchDACHBase50|Product Desc: Autodesk Architectural Desktop 2007 |Company: Autodesk,Inc. |WEB Address: www.autodesk.com
 90
    32897
280
     0
281
     0
  0
CLASS
  1
AEC_AECDBDISPREPCOLUMNGRIDPLAN50
  2
AecDbDispRepColumnGridPlan50
  3
AecArchDACHBase50|Product Desc: Autodesk Architectural Desktop 2007 |Company: Autodesk,Inc. |WEB Address: www.autodesk.com
 90
    32897
280
     0
281
     0
  0
CLASS
  1
AEC_AECDBDISPREPCURTAINWALLLAYOUTPLAN50
  2
AecDbDispRepCurtainWallLayoutPlan50
  3
AecArchDACHBase50|Product Desc: Autodesk Architectural Desktop 2007 |Company: Autodesk,Inc. |WEB Address: www.autodesk.com
 90
    32897
280
     0
281
     0
  0
CLASS
  1
AEC_AECDBDISPREPCURTAINWALLUNITPLAN50
  2
AecDbDispRepCurtainWallUnitPlan50
  3
AecArchDACHBase50|Product Desc: Autodesk Architectural Desktop 2007 |Company: Autodesk,Inc. |WEB Address: www.autodesk.com
 90
    32897
280
     0
281
     0
  0
CLASS
  1
AEC_AECDBDISPREPMVBLOCKREFPLAN50
  2
AecDbDispRepMvBlockRefPlan50
  3
AecArchDACHBase50|Product Desc: Autodesk Architectural Desktop 2007 |Company: Autodesk,Inc. |WEB Address: www.autodesk.com
 90
    32897
280
     0
281
     0
  0
CLASS
  1
AEC_AECDBDISPREPROOFPLAN50
  2
AecDbDispRepRoofPlan50
  3
AecArchDACHBase50|Product Desc: Autodesk Architectural Desktop 2007 |Company: Autodesk,Inc. |WEB Address: www.autodesk.com
 90
    32897
280
     0
281
     0
  0
CLASS
  1
AEC_AECDBDISPREPROOFSLABPLAN50
  2
AecDbDispRepRoofSlabPlan50
  3
AecArchDACHBase50|Product Desc: Autodesk Architectural Desktop 2007 |Company: Autodesk,Inc. |WEB Address: www.autodesk.com
 90
    32897
280
     0
281
     0
  0
CLASS
  1
AEC_AECDBDISPREPSLABPLAN50
  2
AecDbDispRepSlabPlan50
  3
AecArchDACHBase50|Product Desc: Autodesk Architectural Desktop 2007 |Company: Autodesk,Inc. |WEB Address: www.autodesk.com
 90
    32897
280
     0
281
     0
  0
CLASS
  1
AEC_AECDBDISPREPSPACEBOUNDARYPLAN50
  2
AecDbDispRepSpaceBoundaryPlan50
  3
AecArchDACHBase50|Product Desc: Autodesk Architectural Desktop 2007 |Company: Autodesk,Inc. |WEB Address: www.autodesk.com
 90
    32897
280
     0
281
     0
  0
CLASS
  1
AEC_AECDBDISPREPSPACEPLAN50
  2
AecDbDispRepSpacePlan50
  3
AecArchDACHBase50|Product Desc: Autodesk Architectural Desktop 2007 |Company: Autodesk,Inc. |WEB Address: www.autodesk.com
 90
    32897
280
     0
281
     0
  0
CLASS
  1
AEC_AECDBDISPREPWALLPLAN50
  2
AecDbDispRepWallPlan50
  3
AecArchDACHBase50|Product Desc: Autodesk Architectural Desktop 2007 |Company: Autodesk,Inc. |WEB Address: www.autodesk.com
 90
    32897
280
     0
281
     0
  0
CLASS
  1
AEC_AECDBDISPREPWINDOWASSEMBLYPLAN50
  2
AecDbDispRepWindowAssemblyPlan50
  3
AecArchDACHBase50|Product Desc: Autodesk Architectural Desktop 2007 |Company: Autodesk,Inc. |WEB Address: www.autodesk.com
 90
    32897
280
     0
281
     0
  0
CLASS
  1
AEC_DB_DISP_REP_DIM_GROUP_PLAN100
  2
AecDbDispRepDimGroupPlan100
  3
AecArchDACHBase50|Product Desc: Autodesk Architectural Desktop 2007 |Company: Autodesk,Inc. |WEB Address: www.autodesk.com
 90
    32897
280
     0
281
     0
  0
CLASS
  1
AEC_DB_DISP_REP_DIM_GROUP_PLAN50
  2
AecDbDispRepDimGroupPlan50
  3
AecArchDACHBase50|Product Desc: Autodesk Architectural Desktop 2007 |Company: Autodesk,Inc. |WEB Address: www.autodesk.com
 90
    32897
280
     0
281
     0
  0
CLASS
  1
AEC_DISP_REP_DOOR_PLAN_50
  2
AecDbDispRepDoorPlan50
  3
AecArchDACHBase50|Product Desc: Autodesk Architectural Desktop 2007 |Company: Autodesk,Inc. |WEB Address: www.autodesk.com
 90
    32897
280
     0
281
     0
  0
CLASS
  1
AEC_DISP_PROPS_DOOR_PLAN_50
  2
AecDbDispPropsDoorPlan50
  3
AecArchDACHBase50|Product Desc: Autodesk Architectural Desktop 2007 |Company: Autodesk,Inc. |WEB Address: www.autodesk.com
 90
    32897
280
     0
281
     0
  0
CLASS
  1
AEC_DISP_REP_DOOR_PLAN_HEKTO
  2
AecDbDispRepDoorPlanHekto
  3
AecArchDACHBase50|Product Desc: Autodesk Architectural Desktop 2007 |Company: Autodesk,Inc. |WEB Address: www.autodesk.com
 90
    32897
280
     0
281
     0
  0
CLASS
  1
AEC_DISP_PROPS_DOOR_PLAN_100
  2
AecDbDispPropsDoorPlan100
  3
AecArchDACHBase50|Product Desc: Autodesk Architectural Desktop 2007 |Company: Autodesk,Inc. |WEB Address: www.autodesk.com
 90
    32897
280
     0
281
     0
  0
CLASS
  1
AEC_DISP_REP_DOOR_THRESHOLD_SYMBOL_PLAN
  2
AecDbDispRepDoorThresholdSymbolPlan
  3
AecArchDACHBase50|Product Desc: Autodesk Architectural Desktop 2007 |Company: Autodesk,Inc. |WEB Address: www.autodesk.com
 90
    32897
280
     0
281
     0
  0
CLASS
  1
AEC_DISP_PROPS_DOOR_THRESHOLD_SYMBOL_PLAN
  2
AecDbDispPropsDoorThresholdSymbolPlan
  3
AecArchDACHBase50|Product Desc: Autodesk Architectural Desktop 2007 |Company: Autodesk,Inc. |WEB Address: www.autodesk.com
 90
    32897
280
     0
281
     0
  0
CLASS
  1
AEC_DISPREPAECDBDISPREPMASSELEMPLAN100
  2
AecDbDispRepMassElemPlan100
  3
AecArchDACHBase50|Product Desc: Autodesk Architectural Desktop 2007 |Company: Autodesk,Inc. |WEB Address: www.autodesk.com
 90
    32897
280
     0
281
     0
  0
CLASS
  1
AEC_DISPROPSMASSELEMPLANCOMMON
  2
AecDbDispPropsMassElemPlanCommon
  3
AecArchDACHBase50|Product Desc: Autodesk Architectural Desktop 2007 |Company: Autodesk,Inc. |WEB Address: www.autodesk.com
 90
    32897
280
     0
281
     0
  0
CLASS
  1
AEC_DISPREPAECDBDISPREPMASSELEMPLAN50
  2
AecDbDispRepMassElemPlan50
  3
AecArchDACHBase50|Product Desc: Autodesk Architectural Desktop 2007 |Company: Autodesk,Inc. |WEB Address: www.autodesk.com
 90
    32897
280
     0
281
     0
  0
CLASS
  1
AEC_DISPREPAECDBDISPREPMASSGROUPPLAN100
  2
AecDbDispRepMassGroupPlan100
  3
AecArchDACHBase50|Product Desc: Autodesk Architectural Desktop 2007 |Company: Autodesk,Inc. |WEB Address: www.autodesk.com
 90
    32897
280
     0
281
     0
  0
CLASS
  1
AEC_DISPROPSMASSGROUPPLANCOMMON
  2
AecDbDispPropsMassGroupPlanCommon
  3
AecArchDACHBase50|Product Desc: Autodesk Architectural Desktop 2007 |Company: Autodesk,Inc. |WEB Address: www.autodesk.com
 90
    32897
280
     0
281
     0
  0
CLASS
  1
AEC_DISPREPAECDBDISPREPMASSGROUPPLAN50
  2
AecDbDispRepMassGroupPlan50
  3
AecArchDACHBase50|Product Desc: Autodesk Architectural Desktop 2007 |Company: Autodesk,Inc. |WEB Address: www.autodesk.com
 90
    32897
280
     0
281
     0
  0
CLASS
  1
AEC_DISPREPAECDBDISPREPOPENINGPLAN100
  2
AecDbDispRepOpeningPlan100
  3
AecArchDACHBase50|Product Desc: Autodesk Architectural Desktop 2007 |Company: Autodesk,Inc. |WEB Address: www.autodesk.com
 90
    32897
280
     0
281
     0
  0
CLASS
  1
AEC_DISPROPSOPENINGPLANCOMMONHATCHED
  2
AecDbDispPropsOpeningPlanCommonHatched
  3
AecArchDACHBase50|Product Desc: Autodesk Architectural Desktop 2007 |Company: Autodesk,Inc. |WEB Address: www.autodesk.com
 90
    32897
280
     0
281
     0
  0
CLASS
  1
AEC_DISPREPAECDBDISPREPOPENINGPLAN50
  2
AecDbDispRepOpeningPlan50
  3
AecArchDACHBase50|Product Desc: Autodesk Architectural Desktop 2007 |Company: Autodesk,Inc. |WEB Address: www.autodesk.com
 90
    32897
280
     0
281
     0
  0
CLASS
  1
AEC_DISPREPAECDBDISPREPOPENINGPLANREFLECTED
  2
AecDbDispRepOpeningPlanReflected
  3
AecArchDACHBase50|Product Desc: Autodesk Architectural Desktop 2007 |Company: Autodesk,Inc. |WEB Address: www.autodesk.com
 90
    32897
280
     0
281
     0
  0
CLASS
  1
AEC_DISPROPSOPENINGPLANCOMMON
  2
AecDbDispPropsOpeningPlanCommon
  3
AecArchDACHBase50|Product Desc: Autodesk Architectural Desktop 2007 |Company: Autodesk,Inc. |WEB Address: www.autodesk.com
 90
    32897
280
     0
281
     0
  0
CLASS
  1
AEC_DISPREPAECDBDISPREPOPENINGSILLPLAN
  2
AecDbDispRepOpeningSillPlan
  3
AecArchDACHBase50|Product Desc: Autodesk Architectural Desktop 2007 |Company: Autodesk,Inc. |WEB Address: www.autodesk.com
 90
    32897
280
     0
281
     0
  0
CLASS
  1
AEC_DISPROPSOPENINGSILLPLAN
  2
AecDbDispPropsOpeningSillPlan
  3
AecArchDACHBase50|Product Desc: Autodesk Architectural Desktop 2007 |Company: Autodesk,Inc. |WEB Address: www.autodesk.com
 90
    32897
280
     0
281
     0
  0
CLASS
  1
AEC_DISP_REP_RAILING_PLAN_100
  2
AecDbDispRepRailingPlan100
  3
AecArchDACHBase50|Product Desc: Autodesk Architectural Desktop 2007 |Company: Autodesk,Inc. |WEB Address: www.autodesk.com
 90
    32897
280
     0
281
     0
  0
CLASS
  1
AEC_DISP_ROPS_RAILING_PLAN_100
  2
AecDbDispPropsRailingPlan100
  3
AecArchDACHBase50|Product Desc: Autodesk Architectural Desktop 2007 |Company: Autodesk,Inc. |WEB Address: www.autodesk.com
 90
    32897
280
     0
281
     0
  0
CLASS
  1
AEC_DISP_REP_RAILING_PLAN_50
  2
AecDbDispRepRailingPlan50
  3
AecArchDACHBase50|Product Desc: Autodesk Architectural Desktop 2007 |Company: Autodesk,Inc. |WEB Address: www.autodesk.com
 90
    32897
280
     0
281
     0
  0
CLASS
  1
AEC_DISP_ROPS_RAILING_PLAN_50
  2
AecDbDispPropsRailingPlan50
  3
AecArchDACHBase50|Product Desc: Autodesk Architectural Desktop 2007 |Company: Autodesk,Inc. |WEB Address: www.autodesk.com
 90
    32897
280
     0
281
     0
  0
CLASS
  1
AEC_DISP_REP_STAIR_PLAN_100
  2
AecDbDispRepStairPlan100
  3
AecArchDACHBase50|Product Desc: Autodesk Architectural Desktop 2007 |Company: Autodesk,Inc. |WEB Address: www.autodesk.com
 90
    32897
280
     0
281
     0
  0
CLASS
  1
AEC_DISP_ROPS_STAIR_PLAN_100
  2
AecDbDispPropsStairPlan100
  3
AecArchDACHBase50|Product Desc: Autodesk Architectural Desktop 2007 |Company: Autodesk,Inc. |WEB Address: www.autodesk.com
 90
    32897
280
     0
281
     0
  0
CLASS
  1
AEC_DISP_REP_STAIR_PLAN_50
  2
AecDbDispRepStairPlan50
  3
AecArchDACHBase50|Product Desc: Autodesk Architectural Desktop 2007 |Company: Autodesk,Inc. |WEB Address: www.autodesk.com
 90
    32897
280
     0
281
     0
  0
CLASS
  1
AEC_DISP_ROPS_STAIR_PLAN_50
  2
AecDbDispPropsStairPlan50
  3
AecArchDACHBase50|Product Desc: Autodesk Architectural Desktop 2007 |Company: Autodesk,Inc. |WEB Address: www.autodesk.com
 90
    32897
280
     0
281
     0
  0
CLASS
  1
AEC_DISP_REP_WINDOW_PLAN_100
  2
AecDbDispRepWindowPlan100
  3
AecArchDACHBase50|Product Desc: Autodesk Architectural Desktop 2007 |Company: Autodesk,Inc. |WEB Address: www.autodesk.com
 90
    32897
280
     0
281
     0
  0
CLASS
  1
AEC_DISP_PROPS_WINDOW_PLAN_100
  2
AecDbDispPropsWindowPlan100
  3
AecArchDACHBase50|Product Desc: Autodesk Architectural Desktop 2007 |Company: Autodesk,Inc. |WEB Address: www.autodesk.com
 90
    32897
280
     0
281
     0
  0
CLASS
  1
AEC_DISP_REP_WINDOW_PLAN_50
  2
AecDbDispRepWindowPlan50
  3
AecArchDACHBase50|Product Desc: Autodesk Architectural Desktop 2007 |Company: Autodesk,Inc. |WEB Address: www.autodesk.com
 90
    32897
280
     0
281
     0
  0
CLASS
  1
AEC_DISP_PROPS_WINDOW_PLAN_50
  2
AecDbDispPropsWindowPlan50
  3
AecArchDACHBase50|Product Desc: Autodesk Architectural Desktop 2007 |Company: Autodesk,Inc. |WEB Address: www.autodesk.com
 90
    32897
280
     0
281
     0
  0
CLASS
  1
BINRECORD
  2
AcAecBinRecord
  3
AecBase50|Product Desc: Autodesk Architectural Desktop 2007 |Company: Autodesk,Inc. |WEB Address: www.autodesk.com
 90
    32897
280
     0
281
     0
  0
CLASS
  1
SORTENTSTABLE
  2
AcDbSortentsTable
  3
ObjectDBX Classes
 90
        0
280
     0
281
     0
  0
CLASS
  1
AEC_MASS_ELEM
  2
AecDbMassElem
  3
AecBaseEx50|Product Desc: Autodesk Architectural Desktop 2007 |Company: Autodesk,Inc. |WEB Address: www.autodesk.com
 90
    33661
280
     0
281
     1
  0
CLASS
  1
MATERIAL
  2
AcDbMaterial
  3
ObjectDBX Classes
 90
     1153
280
     0
281
     0
  0
CLASS
  1
AECS_MEMBER
  2
AecsDbMember
  3
AecStructureBase50|Product Desc: Autodesk Architectural Desktop 2007 |Company: Autodesk,Inc. |WEB Address: www.autodesk.com
 90
    33661
280
     0
281
     1
  0
CLASS
  1
AEC_WALL
  2
AecDbWall
  3
AecArchBase50|Product Desc: Autodesk Architectural Desktop 2007 |Company: Autodesk,Inc. |WEB Address: www.autodesk.com
 90
    33661
280
     0
281
     1
  0
CLASS
  1
AEC_DOOR
  2
AecDbDoor
  3
AecArchBase50|Product Desc: Autodesk Architectural Desktop 2007 |Company: Autodesk,Inc. |WEB Address: www.autodesk.com
 90
    33661
280
     0
281
     1
  0
CLASS
  1
AEC_ANCHOR_OPENINGBASE_TO_WALL
  2
AecDbAnchorOpeningBaseToWall
  3
AecArchBase50|Product Desc: Autodesk Architectural Desktop 2007 |Company: Autodesk,Inc. |WEB Address: www.autodesk.com
 90
    32897
280
     0
281
     0
  0
CLASS
  1
AEC_SPACE_BOUNDARY
  2
AecDbSpaceBoundary
  3
AecArchBase50|Product Desc: Autodesk Architectural Desktop 2007 |Company: Autodesk,Inc. |WEB Address: www.autodesk.com
 90
    33661
280
     0
281
     1
  0
CLASS
  1
AEC_SPACE
  2
AecDbSpace
  3
AecArchBase50|Product Desc: Autodesk Architectural Desktop 2007 |Company: Autodesk,Inc. |WEB Address: www.autodesk.com
 90
    33661
280
     0
281
     1
  0
CLASS
  1
AecDbPropertySet
  2
AecDbPropertySet
  3
AecScheduleData50|Product Desc: Autodesk Architectural Desktop 2007 |Company: Autodesk,Inc. |WEB Address: www.autodesk.com
 90
    32897
280
     0
281
     0
  0
CLASS
  1
AEC_MVBLOCK_REF
  2
AecDbMvBlockRef
  3
AecBase50|Product Desc: Autodesk Architectural Desktop 2007 |Company: Autodesk,Inc. |WEB Address: www.autodesk.com
 90
    33661
280
     0
281
     1
  0
CLASS
  1
AEC_ANCHOR_TAG_TO_ENT
  2
AecDbAnchorTagToEnt
  3
AecScheduleData50|Product Desc: Autodesk Architectural Desktop 2007 |Company: Autodesk,Inc. |WEB Address: www.autodesk.com
 90
    32897
280
     0
281
     0
  0
CLASS
  1
AEC_WINDOW
  2
AecDbWindow
  3
AecArchBase50|Product Desc: Autodesk Architectural Desktop 2007 |Company: Autodesk,Inc. |WEB Address: www.autodesk.com
 90
    33661
280
     0
281
     1
  0
CLASS
  1
AEC_OPENING
  2
AecDbOpening
  3
AecArchBase50|Product Desc: Autodesk Architectural Desktop 2007 |Company: Autodesk,Inc. |WEB Address: www.autodesk.com
 90
    33661
280
     0
281
     1
  0
CLASS
  1
AEC_CLASSIFICATION_SYSTEM_DEF
  2
AecDbClassificationSystemDef
  3
AecBase50|Product Desc: Autodesk Architectural Desktop 2007 |Company: Autodesk,Inc. |WEB Address: www.autodesk.com
 90
    32897
280
     0
281
     0
  0
CLASS
  1
AEC_CLASSIFICATION_DEF
  2
AecDbClassificationDef
  3
AecBase50|Product Desc: Autodesk Architectural Desktop 2007 |Company: Autodesk,Inc. |WEB Address: www.autodesk.com
 90
    32897
280
     0
281
     0
  0
CLASS
  1
AEC_CLEANUP_GROUP_DEF
  2
AecDbCleanupGroupDef
  3
AecArchBase50|Product Desc: Autodesk Architectural Desktop 2007 |Company: Autodesk,Inc. |WEB Address: www.autodesk.com
 90
    32897
280
     0
281
     0
  0
CLASS
  1
AEC_DOOR_STYLE
  2
AecDbDoorStyle
  3
AecArchBase50|Product Desc: Autodesk Architectural Desktop 2007 |Company: Autodesk,Inc. |WEB Address: www.autodesk.com
 90
    32897
280
     0
281
     0
  0
CLASS
  1
AEC_STDSIZE_OPENINGS
  2
AecDbStdSizeOpeningList
  3
AecArchBase50|Product Desc: Autodesk Architectural Desktop 2007 |Company: Autodesk,Inc. |WEB Address: www.autodesk.com
 90
    32897
280
     0
281
     0
  0
CLASS
  1
AEC_ENDCAP_STYLE
  2
AecDbEndcapStyle
  3
AecArchBase50|Product Desc: Autodesk Architectural Desktop 2007 |Company: Autodesk,Inc. |WEB Address: www.autodesk.com
 90
    32897
280
     0
281
     0
  0
CLASS
  1
AEC_MASS_ELEM_STYLE
  2
AecDbMassElemStyle
  3
AecBaseEx50|Product Desc: Autodesk Architectural Desktop 2007 |Company: Autodesk,Inc. |WEB Address: www.autodesk.com
 90
    32897
280
     0
281
     0
  0
CLASS
  1
AEC_MATERIAL_DEF
  2
AecDbMaterialDef
  3
AecBase50|Product Desc: Autodesk Architectural Desktop 2007 |Company: Autodesk,Inc. |WEB Address: www.autodesk.com
 90
    32897
280
     0
281
     0
  0
CLASS
  1
AEC_MVBLOCK_DEF
  2
AecDbMvBlockDef
  3
AecBase50|Product Desc: Autodesk Architectural Desktop 2007 |Company: Autodesk,Inc. |WEB Address: www.autodesk.com
 90
    32897
280
     0
281
     0
  0
CLASS
  1
AEC_FRAME_DEF
  2
AecDbOpeningEndcapStyle
  3
AecArchBase50|Product Desc: Autodesk Architectural Desktop 2007 |Company: Autodesk,Inc. |WEB Address: www.autodesk.com
 90
    32897
280
     0
281
     0
  0
CLASS
  1
AEC_PROFILE_DEF
  2
AecDbProfileDef
  3
AecBase50|Product Desc: Autodesk Architectural Desktop 2007 |Company: Autodesk,Inc. |WEB Address: www.autodesk.com
 90
    32897
280
     0
281
     0
  0
CLASS
  1
AEC_SCHEDULE_DATA_FORMAT
  2
AecDbScheduleDataFormat
  3
AecScheduleData50|Product Desc: Autodesk Architectural Desktop 2007 |Company: Autodesk,Inc. |WEB Address: www.autodesk.com
 90
    32897
280
     0
281
     0
  0
CLASS
  1
AEC_PROPERTY_SET_DEF
  2
AecDbPropertySetDef
  3
AecScheduleData50|Product Desc: Autodesk Architectural Desktop 2007 |Company: Autodesk,Inc. |WEB Address: www.autodesk.com
 90
    32897
280
     0
281
     0
  0
CLASS
  1
AEC_SPACE_STYLES
  2
AecDbSpaceStyle
  3
AecArchBase50|Product Desc: Autodesk Architectural Desktop 2007 |Company: Autodesk,Inc. |WEB Address: www.autodesk.com
 90
    32897
280
     0
281
     0
  0
CLASS
  1
AEC_TEXT_NOTE
  2
AecDbTextNote
  3
AecBase50|Product Desc: Autodesk Architectural Desktop 2007 |Company: Autodesk,Inc. |WEB Address: www.autodesk.com
 90
    32897
280
     0
281
     0
  0
CLASS
  1
AECS_MEMBER_STYLE
  2
AecsDbMemberStyle
  3
AecStructureBase50|Product Desc: Autodesk Architectural Desktop 2007 |Company: Autodesk,Inc. |WEB Address: www.autodesk.com
 90
    32897
280
     0
281
     0
  0
CLASS
  1
AEC_VARS_STRUCTUREBASE
  2
AecsDbVarsStructureBase
  3
AecStructureBase50|Product Desc: Autodesk Architectural Desktop 2007 |Company: Autodesk,Inc. |WEB Address: www.autodesk.com
 90
    32897
280
     0
281
     0
  0
CLASS
  1
AEC_WALL_STYLE
  2
AecDbWallStyle
  3
AecArchBase50|Product Desc: Autodesk Architectural Desktop 2007 |Company: Autodesk,Inc. |WEB Address: www.autodesk.com
 90
    32897
280
     0
281
     0
  0
CLASS
  1
AEC_WINDOW_STYLE
  2
AecDbWindowStyle
  3
AecArchBase50|Product Desc: Autodesk Architectural Desktop 2007 |Company: Autodesk,Inc. |WEB Address: www.autodesk.com
 90
    32897
280
     0
281
     0
  0
CLASS
  1
AECS_MEMBER_NODE_SHAPE
  2
AecsDbMemberNodeShape
  3
AecStructureBase50|Product Desc: Autodesk Architectural Desktop 2007 |Company: Autodesk,Inc. |WEB Address: www.autodesk.com
 90
    32897
280
     0
281
     0
  0
CLASS
  1
AEC_SCHEDULE_TABLE
  2
AecDbScheduleTable
  3
AecSchedule50|Product Desc: Autodesk Architectural Desktop 2007 |Company: Autodesk,Inc. |WEB Address: www.autodesk.com
 90
    33661
280
     0
281
     1
  0
CLASS
  1
AEC_SCHEDULE_TABLE_STYLE
  2
AecDbScheduleTableStyle
  3
AecSchedule50|Product Desc: Autodesk Architectural Desktop 2007 |Company: Autodesk,Inc. |WEB Address: www.autodesk.com
 90
    32897
280
     0
281
     0
  0
CLASS
  1
AEC_ANCHOR_MVB_TO_UCS
  2
AecDbAnchorMVBToUCS
  3
AecBase50|Product Desc: Autodesk Architectural Desktop 2007 |Company: Autodesk,Inc. |WEB Address: www.autodesk.com
 90
    32897
280
     0
281
     0
  0
CLASS
  1
IMAGEDEF
  2
AcDbRasterImageDef
  3
ISM
 90
    32768
280
     0
281
     0
  0
CLASS
  1
AEC_ANCHOR_ENT_TO_GRID_ASSEMBLY
  2
AecDbAnchorEntToGridAssembly
  3
AecBaseEx50|Product Desc: Autodesk Architectural Desktop 2007 |Company: Autodesk,Inc. |WEB Address: www.autodesk.com
 90
    32897
280
     0
281
     0
  0
CLASS
  1
AEC_WINDOW_ASSEMBLY
  2
AecDbWindowAssembly
  3
AecArchBase50|Product Desc: Autodesk Architectural Desktop 2007 |Company: Autodesk,Inc. |WEB Address: www.autodesk.com
 90
    33661
280
     0
281
     1
  0
CLASS
  1
AEC_ANCHOR_WINASSEMBLY_TO_WALL
  2
AecDbAnchorWinAssemblyToWall
  3
AecArchBase50|Product Desc: Autodesk Architectural Desktop 2007 |Company: Autodesk,Inc. |WEB Address: www.autodesk.com
 90
    32897
280
     0
281
     0
  0
CLASS
  1
AEC_STAIR
  2
AecDbStair
  3
AecArchBase50|Product Desc: Autodesk Architectural Desktop 2007 |Company: Autodesk,Inc. |WEB Address: www.autodesk.com
 90
    33661
280
     0
281
     1
  0
CLASS
  1
AEC_RAILING
  2
AecDbRailing
  3
AecArchBase50|Product Desc: Autodesk Architectural Desktop 2007 |Company: Autodesk,Inc. |WEB Address: www.autodesk.com
 90
    33661
280
     0
281
     1
  0
CLASS
  1
AEC_ANCHOR_RAILING_TO_STAIR
  2
AecDbAnchorRailingToStair
  3
AecArchBase50|Product Desc: Autodesk Architectural Desktop 2007 |Company: Autodesk,Inc. |WEB Address: www.autodesk.com
 90
    32897
280
     0
281
     0
  0
CLASS
  1
AEC_RAILING_STYLE
  2
AecDbRailingStyle
  3
AecArchBase50|Product Desc: Autodesk Architectural Desktop 2007 |Company: Autodesk,Inc. |WEB Address: www.autodesk.com
 90
    32897
280
     0
281
     0
  0
CLASS
  1
AEC_STAIR_STYLE
  2
AecDbStairStyle
  3
AecArchBase50|Product Desc: Autodesk Architectural Desktop 2007 |Company: Autodesk,Inc. |WEB Address: www.autodesk.com
 90
    32897
280
     0
281
     0
  0
CLASS
  1
AEC_STAIR_WINDER_STYLE
  2
AecDbStairWinderStyle
  3
AecArchBase50|Product Desc: Autodesk Architectural Desktop 2007 |Company: Autodesk,Inc. |WEB Address: www.autodesk.com
 90
    32897
280
     0
281
     0
  0
CLASS
  1
AEC_STAIR_WINDER_TYPE_SINGLE_POINT
  2
AecDbStairWinderTypeSinglePoint
  3
AecArchBase50|Product Desc: Autodesk Architectural Desktop 2007 |Company: Autodesk,Inc. |WEB Address: www.autodesk.com
 90
    32897
280
     0
281
     0
  0
CLASS
  1
AEC_WINDOW_ASSEMBLY_STYLE
  2
AecDbWindowAssemblyStyle
  3
AecArchBase50|Product Desc: Autodesk Architectural Desktop 2007 |Company: Autodesk,Inc. |WEB Address: www.autodesk.com
 90
    32897
280
     0
281
     0
  0
CLASS
  1
AEC_AECDBAREASTYLE
  2
AecDbAreaStyle
  3
AecAreaCalculationBase50|Product Desc: Autodesk Architectural Desktop 2007 |Company: Autodesk,Inc. |WEB Address: www.autodesk.com
 90
    32897
280
     0
281
     0
  0
CLASS
  1
AEC_AECDBAREAPROPOSALNAMES
  2
AecDbAreaProposalNames
  3
AecAreaCalculationBase50|Product Desc: Autodesk Architectural Desktop 2007 |Company: Autodesk,Inc. |WEB Address: www.autodesk.com
 90
    32897
280
     0
281
     0
  0
CLASS
  1
AEC_AREA
  2
AecDbArea
  3
AecAreaCalculationBase50|Product Desc: Autodesk Architectural Desktop 2007 |Company: Autodesk,Inc. |WEB Address: www.autodesk.com
 90
    33661
280
     0
281
     1
  0
CLASS
  1
OBJECT_PTR
  2
CAseDLPNTableRecord
  3
ASE-LPNTableRecord
 90
    32769
280
     0
281
     0
  0
CLASS
  1
TABLESTYLE
  2
AcDbTableStyle
  3
ObjectDBX Classes
 90
     4095
280
     0
281
     0
  0
CLASS
  1
AEC_DISP_REP_DISPLAYTHEME
  2
AecDbDispRepDisplayTheme
  3
AecBase50|Product Desc: Autodesk Architectural Desktop 2007 |Company: Autodesk,Inc. |WEB Address: www.autodesk.com
 90
    32897
280
     0
281
     0
  0
CLASS
  1
AEC_DISP_PROPS_DISPLAYTHEME
  2
AecDbDispPropsDisplayTheme
  3
AecBase50|Product Desc: Autodesk Architectural Desktop 2007 |Company: Autodesk,Inc. |WEB Address: www.autodesk.com
 90
    32897
280
     0
281
     0
  0
CLASS
  1
AEC_DISP_REP_ANCHOR_EXT_TAG_TO_ENT
  2
AecDbDispRepAnchorExtendedTagToEnt
  3
AecScheduleData50|Product Desc: Autodesk Architectural Desktop 2007 |Company: Autodesk,Inc. |WEB Address: www.autodesk.com
 90
    32897
280
     0
281
     0
  0
CLASS
  1
VISUALSTYLE
  2
AcDbVisualStyle
  3
ObjectDBX Classes
 90
     4095
280
     0
281
     0
  0
CLASS
  1
AEC_AECDBDISPREPZONE100
  2
AecDbDispRepZonePlan100
  3
AecArchDACHBase50|Product Desc: Autodesk Architectural Desktop 2007 |Company: Autodesk,Inc. |WEB Address: www.autodesk.com
 90
    32897
280
     0
281
     0
  0
CLASS
  1
AEC_DISP_PROPS_ZONE
  2
AecDbDispPropsZone
  3
AecArchBase50|Product Desc: Autodesk Architectural Desktop 2007 |Company: Autodesk,Inc. |WEB Address: www.autodesk.com
 90
    32897
280
     0
281
     0
  0
CLASS
  1
AEC_AECDBDISPREPZONE50
  2
AecDbDispRepZonePlan50
  3
AecArchDACHBase50|Product Desc: Autodesk Architectural Desktop 2007 |Company: Autodesk,Inc. |WEB Address: www.autodesk.com
 90
    32897
280
     0
281
     0
  0
CLASS
  1
AEC_DISP_REP_SPACE_DECOMPOSED
  2
AecDbDispRepSpaceDecomposed
  3
AecArchBase50|Product Desc: Autodesk Architectural Desktop 2007 |Company: Autodesk,Inc. |WEB Address: www.autodesk.com
 90
    32897
280
     0
281
     0
  0
CLASS
  1
AEC_DISP_PROPS_SPACE_DECOMPOSED
  2
AecDbDispPropsSpaceDecomposed
  3
AecArchBase50|Product Desc: Autodesk Architectural Desktop 2007 |Company: Autodesk,Inc. |WEB Address: www.autodesk.com
 90
    32897
280
     0
281
     0
  0
CLASS
  1
AEC_DISP_REP_ZONE
  2
AecDbDispRepZone
  3
AecArchBase50|Product Desc: Autodesk Architectural Desktop 2007 |Company: Autodesk,Inc. |WEB Address: www.autodesk.com
 90
    32897
280
     0
281
     0
  0
CLASS
  1
AEC_LIST_DEF
  2
AecDbListDefinition
  3
AecBase50|Product Desc: Autodesk Architectural Desktop 2007 |Company: Autodesk,Inc. |WEB Address: www.autodesk.com
 90
    32897
280
     0
281
     0
  0
CLASS
  1
EXACXREFPANELOBJECT
  2
ExAcXREFPanelObject
  3
EXAC_ESW
 90
    33793
280
     0
281
     0
  0
CLASS
  1
NPOCOLLECTION
  2
AcDbImpNonPersistentObjectsCollection
  3
ObjectDBX Classes
 90
    33921
280
     0
281
     0
  0
CLASS
  1
ACAD_EVALUATION_GRAPH
  2
AcDbEvalGraph
  3
ObjectDBX Classes
 90
    33921
280
     0
281
     0
  0
CLASS
  1
BLOCKLINEARPARAMETER
  2
AcDbBlockLinearParameter
  3
ObjectDBX Classes
 90
    33921
280
     0
281
     0
  0
CLASS
  1
BLOCKLINEARGRIP
  2
AcDbBlockLinearGrip
  3
ObjectDBX Classes
 90
    33921
280
     0
281
     0
  0
CLASS
  1
BLOCKGRIPLOCATIONCOMPONENT
  2
AcDbBlockGripExpr
  3
ObjectDBX Classes
 90
    33921
280
     0
281
     0
  0
CLASS
  1
BLOCKSTRETCHACTION
  2
AcDbBlockStretchAction
  3
ObjectDBX Classes
 90
    33921
280
     0
281
     0
  0
CLASS
  1
BLOCKFLIPPARAMETER
  2
AcDbBlockFlipParameter
  3
ObjectDBX Classes
 90
    33921
280
     0
281
     0
  0
CLASS
  1
BLOCKFLIPGRIP
  2
AcDbBlockFlipGrip
  3
ObjectDBX Classes
 90
    33921
280
     0
281
     0
  0
CLASS
  1
BLOCKFLIPACTION
  2
AcDbBlockFlipAction
  3
ObjectDBX Classes
 90
    33921
280
     0
281
     0
  0
CLASS
  1
ACDB_DYNAMICBLOCKPURGEPREVENTER_VERSION
  2
AcDbDynamicBlockPurgePreventer
  3
ObjectDBX Classes
 90
    33921
280
     0
281
     0
  0
CLASS
  1
ACDB_BLOCKREPRESENTATION_DATA
  2
AcDbBlockRepresentationData
  3
ObjectDBX Classes
 90
    33921
280
     0
281
     0
  0
CLASS
  1
BLOCKROTATIONPARAMETER
  2
AcDbBlockRotationParameter
  3
ObjectDBX Classes
 90
    33921
280
     0
281
     0
  0
CLASS
  1
BLOCKROTATIONGRIP
  2
AcDbBlockRotationGrip
  3
ObjectDBX Classes
 90
    33921
280
     0
281
     0
  0
CLASS
  1
BLOCKROTATEACTION
  2
AcDbBlockRotateAction
  3
ObjectDBX Classes
 90
    33921
280
     0
281
     0
  0
CLASS
  1
BLOCKBASEPOINTPARAMETER
  2
AcDbBlockBasepointParameter
  3
ObjectDBX Classes
 90
    33921
280
     0
281
     0
  0
CLASS
  1
DIMASSOC
  2
AcDbDimAssoc
  3
"AcDbDimAssoc|Product Desc:     AcDim ARX App For Dimension|Company:          Autodesk, Inc.|WEB Address:      www.autodesk.com"
 90
    32768
280
     0
281
     0
  0
CLASS
  1
AEC_LIST_DEF
  2
AecDbListItem
  3
AecBase50|Product Desc: Autodesk Architectural Desktop 2007 |Company: Autodesk,Inc. |WEB Address: www.autodesk.com
 90
    32897
280
     0
281
     0
  0
CLASS
  1
AEC_ROOFSLAB_STYLE
  2
AecDbRoofSlabStyle
  3
AecArchBase50|Product Desc: Autodesk Architectural Desktop 2007 |Company: Autodesk,Inc. |WEB Address: www.autodesk.com
 90
    32897
280
     0
281
     0
  0
CLASS
  1
AEC_ROOFSLABEDGE_STYLE
  2
AecDbRoofSlabEdgeStyle
  3
AecArchBase50|Product Desc: Autodesk Architectural Desktop 2007 |Company: Autodesk,Inc. |WEB Address: www.autodesk.com
 90
    32897
280
     0
281
     0
  0
CLASS
  1
AEC_SLAB_STYLE
  2
AecDbSlabStyle
  3
AecArchBase50|Product Desc: Autodesk Architectural Desktop 2007 |Company: Autodesk,Inc. |WEB Address: www.autodesk.com
 90
    32897
280
     0
281
     0
  0
CLASS
  1
AEC_SLABEDGE_STYLE
  2
AecDbSlabEdgeStyle
  3
AecArchBase50|Product Desc: Autodesk Architectural Desktop 2007 |Company: Autodesk,Inc. |WEB Address: www.autodesk.com
 90
    32897
280
     0
281
     0
  0
CLASS
  1
SOLID_BACKGROUND
  2
AcDbSolidBackground
  3
SCENEOE
 90
    36863
280
     0
281
     0
  0
CLASS
  1
AEC_2D_SECTION
  2
AecDb2dSection
  3
AecBase50|Product Desc: Autodesk Architectural Desktop 2007 |Company: Autodesk,Inc. |WEB Address: www.autodesk.com
 90
    33661
280
     0
281
     1
  0
CLASS
  1
AEC_2DSECTION_STYLE
  2
AecDb2dSectionStyle
  3
AecBase50|Product Desc: Autodesk Architectural Desktop 2007 |Company: Autodesk,Inc. |WEB Address: www.autodesk.com
 90
    32897
280
     0
281
     0
  0
CLASS
  1
SCALE
  2
AcDbScale
  3
ObjectDBX Classes
 90
     1153
280
     0
281
     0
  0
CLASS
  1
MLEADERSTYLE
  2
AcDbMLeaderStyle
  3
ACDB_MLEADERSTYLE_CLASS
 90
    36863
280
     0
281
     0
  0
CLASS
  1
CELLSTYLEMAP
  2
AcDbCellStyleMap
  3
ObjectDBX Classes
 90
     1152
280
     0
281
     0
  0
CLASS
  1
AEC_REFEDIT_STATUS_TRACKER
  2
AecDbRefEditStatusTracker
  3
AecArchBase50|Product Desc: Autodesk Architectural Desktop 2007 |Company: Autodesk,Inc. |WEB Address: www.autodesk.com
 90
    32897
280
     0
281
     0
  0
CLASS
  1
AEC_DISPLAYTHEME_STYLE
  2
AecDbDisplayThemeStyle
  3
AecBase50|Product Desc: Autodesk Architectural Desktop 2007 |Company: Autodesk,Inc. |WEB Address: www.autodesk.com
 90
    32897
280
     0
281
     0
  0
ENDSEC
  0
SECTION
  2
TABLES
  0
TABLE
  2
VPORT
  5
20E
330
0
100
AcDbSymbolTable
 70
     1
  0
VPORT
  5
20F
330
20E
100
AcDbSymbolTableRecord
100
AcDbViewportTableRecord
  2
*Active
 70
     0
 10
0.0
 20
0.0
 11
1.0
 21
1.0
 12
13769.28344593012
 22
8639.034485097706
 13
-3534.953416816247
 23
4038.000000000049
 14
1.0
 24
1.0
 15
1.0
 25
1.0
 16
0.0
 26
0.0
 36
1.0
 17
8376.033105280308
 27
-6039.883095431248
 37
4.599588122340435
 40
9393.598672495732
 41
2.257412398921832
 42
50.0
 43
0.0
 44
0.0
 50
0.0
 51
0.0
 71
     0
 72
  2000
 73
     1
 74
     1
 75
     0
 76
     0
 77
     0
 78
     0
281
     0
 65
     1
110
0.0
120
0.0
130
0.0
111
1.0
121
0.0
131
0.0
112
0.0
122
1.0
132
0.0
 79
     0
146
0.0
  0
ENDTAB
  0
TABLE
  2
LTYPE
  5
209
330
0
100
AcDbSymbolTable
 70
     2
  0
LTYPE
  5
20A
330
209
100
AcDbSymbolTableRecord
100
AcDbLinetypeTableRecord
  2
BYBLOCK
 70
     0
  3

 72
    65
 73
     0
 40
0.0
  0
LTYPE
  5
20B
330
209
100
AcDbSymbolTableRecord
100
AcDbLinetypeTableRecord
  2
BYLAYER
 70
     0
  3

 72
    65
 73
     0
 40
0.0
  0
LTYPE
  5
E
330
209
100
AcDbSymbolTableRecord
100
AcDbLinetypeTableRecord
  2
CONTINUOUS
 70
     0
  3
Solid line
 72
    65
 73
     0
 40
0.0
  0
LTYPE
  5
14
330
209
100
AcDbSymbolTableRecord
100
AcDbLinetypeTableRecord
  2
DASHED
 70
     0
  3
Dashed __ __ __ __ __ __ __ __ __ __ __ __ __ _
 72
    65
 73
     2
 40
0.75
 49
0.5
 74
     0
 49
-0.25
 74
     0
  0
ENDTAB
  0
TABLE
  2
LAYER
  5
202
102
{ACAD_XDICTIONARY
360
203
102
}
330
0
100
AcDbSymbolTable
 70
     9
  0
LAYER
  5
6
102
{ACAD_XDICTIONARY
360
7
102
}
330
202
100
AcDbSymbolTableRecord
100
AcDbLayerTableRecord
  2
0
 70
     0
 62
     7
  6
CONTINUOUS
370
    -3
390
9
1001
RAK
1000
{ACET-LAYISO
1070
     0
1070
     7
1000
CONTINUOUS
1070
     1
1071
       -3
1071
        1
1005
9
1000
ACET-LAYISO}
  0
LAYER
  5
11
102
{ACAD_XDICTIONARY
360
12
102
}
330
202
100
AcDbSymbolTableRecord
100
AcDbLayerTableRecord
  2
NAPISY
 70
     0
 62
   140
  6
CONTINUOUS
370
    -3
390
9
1001
RAK
1000
{ACET-LAYISO
1070
     0
1070
   140
1000
CONTINUOUS
1071
       -3
1071
        1
1005
9
1000
ACET-LAYISO}
  0
LAYER
  5
2C
102
{ACAD_XDICTIONARY
360
2D
102
}
330
202
100
AcDbSymbolTableRecord
100
AcDbLayerTableRecord
  2
A-Wall-G
 70
     0
 62
     7
  6
CONTINUOUS
370
    13
390
9
1001
AcAecLayerStandard
1000
BS1192 - Descriptive
1001
RAK
1000
{DRUK
1070
     0
1070
    50
1000
Continuous
1071
       35
1071
        1
1005
9
1000
DRUK}
1000
{ACET-LAYISO
1070
     0
1070
     7
1000
CONTINUOUS
1071
       13
1071
        1
1005
9
1000
ACET-LAYISO}
  0
LAYER
  5
6B
102
{ACAD_XDICTIONARY
360
6C
102
}
330
202
100
AcDbSymbolTableRecord
100
AcDbLayerTableRecord
  2
A-MassElement-G
 70
     0
 62
   210
  6
CONTINUOUS
370
    -3
390
9
1001
AcAecLayerStandard
1000
1m1_ARCHON
  0
LAYER
  5
EA
102
{ACAD_XDICTIONARY
360
EB
102
}
330
202
100
AcDbSymbolTableRecord
100
AcDbLayerTableRecord
  2
0Wymiary-PL
 70
     0
 62
     1
  6
CONTINUOUS
370
     5
390
9
  0
LAYER
  5
1C
102
{ACAD_XDICTIONARY
360
1D
102
}
330
202
100
AcDbSymbolTableRecord
100
AcDbLayerTableRecord
  2
RAMKI-A4
 70
     0
 62
     2
  6
CONTINUOUS
290
     0
370
    -3
390
9
1001
RAK
1000
{ACET-LAYISO
1070
     0
1070
     2
1000
Continuous
1071
       -3
1071
        0
1005
9
1000
ACET-LAYISO}
  0
LAYER
  5
20
102
{ACAD_XDICTIONARY
360
21
102
}
330
202
100
AcDbSymbolTableRecord
100
AcDbLayerTableRecord
  2
0Hatch
 70
     0
 62
   122
  6
CONTINUOUS
370
     5
390
9
  0
LAYER
  5
34
330
202
100
AcDbSymbolTableRecord
100
AcDbLayerTableRecord
  2
teren$0$A-MassElement-G
 70
     0
 62
   210
  6
CONTINUOUS
370
     5
390
9
1001
AcAecLayerStandard
1000
1m1_ARCHON
  0
LAYER
  5
58
330
202
100
AcDbSymbolTableRecord
100
AcDbLayerTableRecord
  2
teren$0$A-WallBelow-G
 70
     0
 62
     8
  6
CONTINUOUS
370
     5
390
59
1001
RAK
1000
{KONDYGNACJA POWTARZALNA
1070
     0
1070
    30
1000
CONTINUOUS
1071
       -3
1071
        1
1005
9
1000
KONDYGNACJA POWTARZALNA}
1001
AcAecLayerStandard
1000

1000
Architects, Wall (below cut plane), Graphics
  0
ENDTAB
  0
TABLE
  2
STYLE
  5
206
330
0
100
AcDbSymbolTable
 70
     3
  0
STYLE
  5
207
330
206
100
AcDbSymbolTableRecord
100
AcDbTextStyleTableRecord
  2
STANDARD
 70
     0
 40
0.0
 41
1.0
 50
0.0
 71
     0
 42
0.2
  3
txt
  4

  0
STYLE
  5
14D
330
206
100
AcDbSymbolTableRecord
100
AcDbTextStyleTableRecord
  2
ROMANS
 70
     0
 40
0.0
 41
0.9
 50
0.0
 71
     0
 42
5.0
  3
romans.shx
  4

  0
STYLE
  5
16
330
206
100
AcDbSymbolTableRecord
100
AcDbTextStyleTableRecord
  2
AVA
 70
     0
 40
0.0
 41
1.0
 50
0.0
 71
     0
 42
158.5644099714409
  3
ARIAL.TTF
  4

1001
ACAD
1000
Arial CE
1071
    60962
  0
ENDTAB
  0
TABLE
  2
VIEW
  5
20C
330
0
100
AcDbSymbolTable
 70
     1
  0
VIEW
  5
1F8
330
20C
100
AcDbSymbolTableRecord
100
AcDbViewTableRecord
  2
10-ele
 70
     0
 40
2040.000000000001
 10
597.6361962217097
 20
4133.999999999996
 41
2803.999999999998
 11
0.0
 21
0.0
 31
1.0
 12
0.0
 22
0.0
 32
0.0
 42
50.0
 43
0.0
 44
0.0
 50
0.0
 71
     0
281
     0
 72
     1
110
0.0
120
0.0
130
0.0
111
1.0
121
0.0
131
0.0
112
0.0
122
1.0
132
0.0
 79
     0
146
0.0
  0
ENDTAB
  0
TABLE
  2
UCS
  5
20D
330
0
100
AcDbSymbolTable
 70
     0
  0
ENDTAB
  0
TABLE
  2
APPID
  5
210
330
0
100
AcDbSymbolTable
 70
     5
  0
APPID
  5
17
330
210
100
AcDbSymbolTableRecord
100
AcDbRegAppTableRecord
  2
ACAD
 70
     0
  0
APPID
  5
F
330
210
100
AcDbSymbolTableRecord
100
AcDbRegAppTableRecord
  2
RAK
 70
     0
  0
APPID
  5
2F
330
210
100
AcDbSymbolTableRecord
100
AcDbRegAppTableRecord
  2
AcAecLayerStandard
 70
     0
  0
APPID
  5
1FB
330
210
100
AcDbSymbolTableRecord
100
AcDbRegAppTableRecord
  2
ACAD_PSEXT
 70
     0
  0
APPID
  5
205
330
210
100
AcDbSymbolTableRecord
100
AcDbRegAppTableRecord
  2
AcLayerTools
 70
     0
  0
ENDTAB
  0
TABLE
  2
DIMSTYLE
  5
211
330
0
100
AcDbSymbolTable
 70
     1
100
AcDbDimStyleTable
 71
     1
340
212
  0
DIMSTYLE
105
212
330
211
100
AcDbSymbolTableRecord
100
AcDbDimStyleTableRecord
  2
500
 70
     0
 41
30.0
 42
43.0
 43
0.0
 44
13.0
 45
0.5
 46
12.0
 73
     0
 74
     0
 75
     1
 76
     1
 78
    12
140
80.0
141
0.0
145
1.0
147
0.0
172
     1
174
     1
176
     1
177
     1
178
   140
271
     1
272
     1
279
     2
340
14D
341
213
342
213
  0
ENDTAB
  0
TABLE
  2
BLOCK_RECORD
  5
1
330
0
100
AcDbSymbolTable
 70
     1
  0
BLOCK_RECORD
  5
2
102
{ACAD_XDICTIONARY
360
3
102
}
330
1
100
AcDbSymbolTableRecord
100
AcDbBlockTableRecord
  2
*MODEL_SPACE
340
1F6
  0
BLOCK_RECORD
  5
1FC
330
1
100
AcDbSymbolTableRecord
100
AcDbBlockTableRecord
  2
*Paper_Space
340
1FF
  0
BLOCK_RECORD
  5
213
102
{ACAD_XDICTIONARY
360
214
102
}
330
1
100
AcDbSymbolTableRecord
100
AcDbBlockTableRecord
  2
B-DIM
340
0
  0
ENDTAB
  0
ENDSEC
  0
SECTION
  2
BLOCKS
  0
BLOCK
  5
5
330
2
100
AcDbEntity
  8
0
100
AcDbBlockBegin
  2
*MODEL_SPACE
 70
     0
 10
0.0
 20
0.0
 30
0.0
  3
*MODEL_SPACE
  1

  0
ENDBLK
  5
1F5
330
2
100
AcDbEntity
  8
0
100
AcDbBlockEnd
  0
BLOCK
  5
1FD
330
1FC
100
AcDbEntity
 67
     1
  8
0
 48
4.0
100
AcDbBlockBegin
  2
*Paper_Space
 70
     0
 10
0.0
 20
0.0
 30
0.0
  3
*Paper_Space
  1

  0
ENDBLK
  5
1FE
330
1FC
100
AcDbEntity
 67
     1
  8
0
 48
4.0
100
AcDbBlockEnd
  0
BLOCK
  5
216
330
213
100
AcDbEntity
  8
0
100
AcDbBlockBegin
  2
B-DIM
 70
     0
 10
0.0
 20
0.0
 30
0.0
  3
B-DIM
  1

  0
LINE
  5
217
330
213
100
AcDbEntity
  8
0
 62
     1
100
AcDbLine
 10
0.000000000000091
 20
-1.1
 30
0.0
 11
0.000000000000091
 21
1.1
 31
0.0
  0
LWPOLYLINE
  5
218
330
213
100
AcDbEntity
  8
0
 62
     1
100
AcDbPolyline
 90
        2
 70
     0
 43
0.3
 10
-0.7071067811864851
 20
-0.7071067811864851
 10
0.707106781186576
 20
0.707106781186576
  0
LINE
  5
219
330
213
100
AcDbEntity
  8
0
 62
     1
100
AcDbLine
 10
1.20000000000009
 20
0.0
 30
0.0
 11
-1.199999999999909
 21
0.0
 31
0.0
  0
ENDBLK
  5
21A
330
213
100
AcDbEntity
  8
0
100
AcDbBlockEnd
  0
ENDSEC
  0
SECTION
  2
ENTITIES
  0
LINE
  5
10
330
2
100
AcDbEntity
  8
NAPISY
  6
DASHED
 62
     1
370
     5
100
AcDbLine
 10
23733.36978099313
 20
-1145.784439984065
 30
0.0
 11
23733.36978099313
 21
3656.672617493317
 31
0.0
  0
TEXT
  5
15
330
2
100
AcDbEntity
  8
NAPISY
100
AcDbText
 10
23673.8486039998
 20
-64.13727716353242
 30
0.0
 40
100.0
  1
OŚ ODBICIA LUSTRZANEGO
 50
90.0
  7
AVA
100
AcDbText
  0
TEXT
  5
18
330
2
100
AcDbEntity
  8
NAPISY
100
AcDbText
 10
20092.7217276681
 20
-6589.206888443121
 30
0.0
 40
100.0
  1
   O B R Y S   B U D Y N K U           S K A L A   1 : 5 0 0 
  7
AVA
100
AcDbText
  0
TEXT
  5
19
330
2
100
AcDbEntity
  8
NAPISY
100
AcDbText
 10
20188.934778786
 20
5874.158372438746
 30
0.0
 40
150.0
  1
MOŻNA WKLEIĆ DO PROJEKTU ZAGOSPODAROWANIA TERENU
  7
AVA
100
AcDbText
  0
TEXT
  5
1A
330
2
100
AcDbEntity
  8
NAPISY
100
AcDbText
 10
20112.59950815085
 20
6204.026849801507
 30
0.0
 40
150.0
  1
"DOM W MARAKUI (G2)"
  7
AVA
100
AcDbText
  0
LWPOLYLINE
  5
1B
330
2
100
AcDbEntity
  8
RAMKI-A4
100
AcDbPolyline
 90
        4
 70
     1
 43
0.0
 10
18633.36978099311
 20
-7254.762971345655
 10
18633.36978099311
 20
6765.237028654344
 10
28833.36978099314
 20
6765.237028654344
 10
28833.36978099314
 20
-7254.762971345655
  0
HATCH
  5
1F
330
2
100
AcDbEntity
  8
0Hatch
 48
4.0
370
     5
100
AcDbHatch
 10
0.0
 20
0.0
 30
0.0
210
0.0
220
0.0
230
1.0
  2
SOLID
 70
     1
 71
     0
 91
        1
 92
        7
 72
     0
 73
     1
 93
        8
 10
21903.79493963148
 20
906.574394792522
 10
21757.79491423148
 20
906.5743947925218
 10
21757.79491423148
 20
846.5743947925219
 10
21843.79493963148
 20
846.5743947925219
 10
21843.79493963148
 20
526.5743947929259
 10
21916.29493963148
 20
526.5743947929259
 10
21916.29493963148
 20
586.5743947929258
 10
21903.79493963148
 20
586.5743947929258
 97
        0
 75
     0
 76
     1
 47
0.8912641135281717
 98
        1
 10
21875.5075081042
 20
816.4067144111422
1001
ACAD
1010
0.0
1020
0.0
1030
0.0
  0
HATCH
  5
23
330
2
100
AcDbEntity
  8
0Hatch
 48
4.0
370
     5
100
AcDbHatch
 10
0.0
 20
0.0
 30
0.0
210
0.0
220
0.0
230
1.0
  2
SOLID
 70
     1
 71
     0
 91
        1
 92
        7
 72
     0
 73
     1
 93
        4
 10
21557.79493963149
 20
786.5743947925221
 10
21596.7949396315
 20
786.5743947925221
 10
21596.7949396315
 20
846.5743947925219
 10
21557.79493963149
 20
846.574394792522
 97
        0
 75
     0
 76
     1
 47
0.6135550228320247
 98
        1
 10
21575.90998350014
 20
819.524319109546
1001
ACAD
1010
0.0
1020
0.0
1030
0.0
  0
HATCH
  5
24
330
2
100
AcDbEntity
  8
0Hatch
 48
4.0
370
     5
100
AcDbHatch
 10
0.0
 20
0.0
 30
0.0
210
0.0
220
0.0
230
1.0
  2
SOLID
 70
     1
 71
     0
 91
        1
 92
        7
 72
     0
 73
     1
 93
        4
 10
21843.79493963148
 20
843.574394792523
 10
21818.79493963147
 20
843.574394792523
 10
21818.79493963147
 20
786.574394792523
 10
21843.79493963148
 20
786.5743947925211
 97
        0
 75
     0
 76
     1
 47
0.6135550228320247
 98
        1
 10
21828.2569665144
 20
815.84300804973
1001
ACAD
1010
0.0
1020
0.0
1030
0.0
  0
HATCH
  5
25
330
2
100
AcDbEntity
  8
0Hatch
 48
4.0
370
     5
100
AcDbHatch
 10
0.0
 20
0.0
 30
0.0
210
0.0
220
0.0
230
1.0
  2
SOLID
 70
     1
 71
     0
 91
        1
 92
        7
 72
     0
 73
     1
 93
        6
 10
21818.79493963147
 20
843.574394792523
 10
21813.79493963147
 20
843.5743947925239
 10
21813.79493963147
 20
781.5743947925211
 10
21843.79493963148
 20
781.5743947925221
 10
21843.79493963148
 20
786.5743947925238
 10
21818.79493963147
 20
786.574394792523
 97
        0
 75
     0
 76
     1
 47
0.2116228054418701
 98
        1
 10
21816.33392300049
 20
800.1576453599509
1001
ACAD
1010
0.0
1020
0.0
1030
0.0
  0
HATCH
  5
26
330
2
100
AcDbEntity
  8
0Hatch
 48
4.0
370
     5
100
AcDbHatch
 10
0.0
 20
0.0
 30
0.0
210
0.0
220
0.0
230
1.0
  2
SOLID
 70
     1
 71
     0
 91
        1
 92
        7
 72
     0
 73
     1
 93
        8
 10
21601.79493963149
 20
846.5743947925229
 10
21596.7949396315
 20
846.5743947925229
 10
21596.7949396315
 20
786.5743947925238
 10
21557.79493963149
 20
786.5743947925221
 10
21557.79493963149
 20
846.574394792522
 10
21552.7949396315
 20
846.574394792522
 10
21552.7949396315
 20
781.5743947925211
 10
21601.79493963149
 20
781.5743947925221
 97
        0
 75
     0
 76
     1
 47
0.1470408253258471
 98
        1
 10
21599.69641140528
 20
798.5197399648995
1001
ACAD
1010
0.0
1020
0.0
1030
0.0
  0
HATCH
  5
27
330
2
100
AcDbEntity
  8
0Hatch
 48
4.0
370
     5
100
AcDbHatch
 10
0.0
 20
0.0
 30
0.0
210
0.0
220
0.0
230
1.0
  2
SOLID
 70
     1
 71
     0
 91
        1
 92
        7
 72
     0
 73
     1
 93
        4
 10
21818.79493963147
 20
846.5743947925229
 10
21813.79493963146
 20
846.574394792522
 10
21813.79493963146
 20
843.574394792523
 10
21818.79493963147
 20
843.5743947925221
 97
        0
 75
     0
 76
     1
 47
0.0394813793982736
 98
        1
 10
21817.16811765783
 20
844.4956499344216
1001
ACAD
1010
0.0
1020
0.0
1030
0.0
  0
HATCH
  5
28
330
2
100
AcDbEntity
  8
0Hatch
 48
4.0
370
     5
100
AcDbHatch
 10
0.0
 20
0.0
 30
0.0
210
0.0
220
0.0
230
1.0
  2
SOLID
 70
     1
 71
     0
 91
        1
 92
        7
 72
     0
 73
     1
 93
        4
 10
21843.79493963148
 20
846.574394792522
 10
21818.79493963147
 20
846.574394792522
 10
21818.79493963147
 20
843.574394792523
 10
21843.79493963148
 20
843.5743947925221
 97
        0
 75
     0
 76
     1
 47
0.1010721203249812
 98
        1
 10
21825.03950613021
 20
844.9992068898527
1001
ACAD
1010
0.0
1020
0.0
1030
0.0
  0
HATCH
  5
29
330
2
100
AcDbEntity
  8
0Hatch
 48
4.0
370
     5
100
AcDbHatch
 10
0.0
 20
0.0
 30
0.0
210
0.0
220
0.0
230
1.0
  2
SOLID
 70
     1
 71
     0
 91
        3
 92
        7
 72
     0
 73
     1
 93
       12
 10
22261.79493963148
 20
2096.574394792522
 10
21350.79493963148
 20
2096.574394792522
 10
21350.79493963148
 20
1790.574394792522
 10
21325.42309943965
 20
1790.574394792522
 10
21325.42309943965
 20
1730.574394792522
 10
21410.79493963149
 20
1730.574394792522
 10
21410.79493963148
 20
2036.574394792522
 10
22201.79493963148
 20
2036.574394792523
 10
22201.79493963148
 20
1393.729954590241
 10
22340.89653520266
 20
1393.729954590241
 10
22340.89653520266
 20
1453.729954590241
 10
22261.79493963148
 20
1453.729954590241
 97
        0
 92
        7
 72
     0
 73
     1
 93
        8
 10
22526.79493963148
 20
1453.729954590241
 10
22440.89653520266
 20
1453.729954590241
 10
22440.89653520267
 20
1393.729954590241
 10
22466.79493963148
 20
1393.729954590241
 10
22466.79493963148
 20
586.5743947929258
 10
22454.29491423148
 20
586.5743947929258
 10
22454.29491423148
 20
526.5743947929258
 10
22526.79493963148
 20
526.5743947929259
 97
        0
 92
        7
 72
     0
 73
     1
 93
       20
 10
21130.04496107505
 20
1650.574394792522
 10
21201.79493963148
 20
1650.574394792522
 10
21201.79493963148
 20
1730.574394792522
 10
21215.42309943965
 20
1730.574394792522
 10
21215.42309943965
 20
1790.574394792522
 10
21141.79493963148
 20
1790.574394792522
 10
21141.79493963148
 20
1710.574394792522
 10
21105.19214733267
 20
1710.574394792522
 10
21001.79493963148
 20
1607.177187091322
 10
21001.79493963148
 20
1335.971602493713
 10
21105.19214733269
 20
1232.57439479251
 10
21141.79493963148
 20
1232.57439479251
 10
21141.79493963148
 20
846.5743947925219
 10
21657.79491423148
 20
846.5743947925222
 10
21657.79491423148
 20
906.574394792522
 10
21201.79493963148
 20
906.5743947925223
 10
21201.79493963148
 20
1292.574394792546
 10
21130.04496107507
 20
1292.574394792517
 10
21061.79493963148
 20
1360.824416236102
 10
21061.79493963149
 20
1582.32437334894
 97
        0
 75
     0
 76
     1
 47
4.01356076319539
 98
        3
 10
22230.3416141273
 20
2006.976187149247
 10
22511.41710907532
 20
1132.019883208001
 10
21037.7786918832
 20
1593.579357775302
1001
ACAD
1010
0.0
1020
0.0
1030
0.0
  0
HATCH
  5
2A
330
2
100
AcDbEntity
  8
0Hatch
 48
4.0
370
     5
100
AcDbHatch
 10
0.0
 20
0.0
 30
0.0
210
0.0
220
0.0
230
1.0
  2
SOLID
 70
     1
 71
     0
 91
        1
 92
        7
 72
     0
 73
     1
 93
        4
 10
22204.29491423147
 20
586.5743947929258
 10
22166.29493963148
 20
586.5743947929258
 10
22166.29493963148
 20
526.5743947929258
 10
22204.29491423148
 20
526.5743947929256
 97
        0
 75
     0
 76
     1
 47
0.7869650035437
 98
        1
 10
22191.20189041936
 20
550.7430512585369
1001
ACAD
1010
0.0
1020
0.0
1030
0.0
  0
LINE
  5
2B
330
2
100
AcDbEntity
  8
A-Wall-G
370
     5
100
AcDbLine
 10
21148.79493963148
 20
2089.574394792522
 30
0.0
 11
21187.79493963148
 21
2089.574394792522
 31
0.0
  0
LINE
  5
30
330
2
100
AcDbEntity
  8
A-Wall-G
370
     5
100
AcDbLine
 10
21187.79493963148
 20
2089.574394792522
 30
0.0
 11
21187.79493963148
 21
2050.574394792522
 31
0.0
  0
LINE
  5
31
330
2
100
AcDbEntity
  8
A-Wall-G
370
     5
100
AcDbLine
 10
21187.79493963148
 20
2050.574394792522
 30
0.0
 11
21148.79493963148
 21
2050.574394792522
 31
0.0
  0
LINE
  5
32
330
2
100
AcDbEntity
  8
A-Wall-G
370
     5
100
AcDbLine
 10
21148.79493963148
 20
2050.574394792522
 30
0.0
 11
21148.79493963148
 21
2089.574394792522
 31
0.0
  0
LINE
  5
33
330
2
100
AcDbEntity
  8
teren$0$A-MassElement-G
  6
Continuous
 62
   210
370
     5
100
AcDbLine
 10
21141.79493963148
 20
2186.574394792522
 30
0.0
 11
21141.79493963148
 21
2156.574394792522
 31
0.0
  0
LINE
  5
35
330
2
100
AcDbEntity
  8
teren$0$A-MassElement-G
  6
Continuous
 62
   210
370
     5
100
AcDbLine
 10
21111.79493963148
 20
2186.574394792522
 30
0.0
 11
21410.79493963148
 21
2186.574394792522
 31
0.0
  0
LINE
  5
36
330
2
100
AcDbEntity
  8
teren$0$A-MassElement-G
  6
Continuous
 62
   210
370
     5
100
AcDbLine
 10
21410.79493963148
 20
2186.574394792522
 30
0.0
 11
21410.79493963148
 21
2096.574394792522
 31
0.0
  0
LINE
  5
37
330
2
100
AcDbEntity
  8
teren$0$A-MassElement-G
  6
Continuous
 62
   210
370
     5
100
AcDbLine
 10
21440.79493963148
 20
2096.574394792522
 30
0.0
 11
21440.79493963148
 21
2216.574394792522
 31
0.0
  0
LINE
  5
38
330
2
100
AcDbEntity
  8
teren$0$A-MassElement-G
  6
Continuous
 62
   210
370
     5
100
AcDbLine
 10
21440.79493963148
 20
2216.574394792522
 30
0.0
 11
21111.79493963148
 21
2216.574394792522
 31
0.0
  0
LINE
  5
39
330
2
100
AcDbEntity
  8
teren$0$A-MassElement-G
  6
Continuous
 62
   210
370
     5
100
AcDbLine
 10
21111.79493963148
 20
2216.574394792522
 30
0.0
 11
21111.79493963148
 21
2186.574394792522
 31
0.0
  0
3DFACE
  5
3A
330
2
100
AcDbEntity
  8
teren$0$A-MassElement-G
  6
Continuous
 62
   210
370
     5
100
AcDbFace
 10
21843.79493963148
 20
396.7364312990249
 30
0.0
 11
22526.79496503148
 21
396.7364312990249
 31
0.0
 12
22526.79496503148
 22
526.5743947929259
 32
0.0
 13
21843.79493963148
 23
526.5743947929259
 33
0.0
  0
3DFACE
  5
3B
330
2
100
AcDbEntity
  8
teren$0$A-MassElement-G
  6
Continuous
 62
   210
370
     5
100
AcDbFace
 10
22526.79496503148
 20
396.7364312990249
 30
0.0
 11
22526.79496503148
 21
306.574394792925
 31
0.0
 12
22526.79496503148
 22
526.5743947929259
 32
0.0
 13
22526.79496503148
 23
526.5743947929259
 33
0.0
  0
3DFACE
  5
3C
330
2
100
AcDbEntity
  8
teren$0$A-MassElement-G
  6
Continuous
 62
   210
370
     5
100
AcDbFace
 10
21843.79493963148
 20
306.574394792925
 30
0.0
 11
21843.79493963148
 21
526.5743947929259
 31
0.0
 12
22526.79496503148
 22
526.5743947929259
 32
0.0
 13
22526.79496503148
 23
306.574394792925
 33
0.0
  0
3DFACE
  5
3D
330
2
100
AcDbEntity
  8
teren$0$A-MassElement-G
  6
Continuous
 62
   210
370
     5
100
AcDbFace
 10
21843.79493963148
 20
306.574394792925
 30
0.0
 11
21843.79493963148
 21
396.7364312990249
 31
0.0
 12
21843.79493963148
 22
526.5743947929259
 32
0.0
 13
21843.79493963148
 23
526.5743947929259
 33
0.0
  0
3DFACE
  5
3E
330
2
100
AcDbEntity
  8
teren$0$A-MassElement-G
  6
Continuous
 62
   210
370
     5
100
AcDbFace
 10
21843.79493963148
 20
396.7364312990249
 30
0.0
 11
21843.79493963148
 21
306.574394792925
 31
0.0
 12
22526.79496503148
 22
306.574394792925
 32
0.0
 13
22526.79496503148
 23
396.7364312990249
 33
0.0
  0
LINE
  5
3F
330
2
100
AcDbEntity
  8
teren$0$A-MassElement-G
  6
Continuous
 62
   210
370
     5
100
AcDbLine
 10
21547.79493963149
 20
846.574394792522
 30
0.0
 11
21547.79493963149
 21
686.5743947929277
 31
0.0
  0
LINE
  5
40
330
2
100
AcDbEntity
  8
teren$0$A-MassElement-G
  6
Continuous
 62
   210
370
     5
100
AcDbLine
 10
21517.79493963149
 20
745.5743947929277
 30
0.0
 11
21547.79493963149
 21
745.5743947929277
 31
0.0
  0
LINE
  5
41
330
2
100
AcDbEntity
  8
teren$0$A-MassElement-G
  6
Continuous
 62
   210
370
     5
100
AcDbLine
 10
21843.79493963148
 20
686.5743947929277
 30
0.0
 11
21547.79493963149
 21
686.5743947929277
 31
0.0
  0
LINE
  5
42
330
2
100
AcDbEntity
  8
teren$0$A-MassElement-G
  6
Continuous
 62
   210
370
     5
100
AcDbLine
 10
21527.7949396315
 20
745.5743947929277
 30
0.0
 11
21527.7949396315
 21
846.574394792522
 31
0.0
  0
LINE
  5
43
330
2
100
AcDbEntity
  8
teren$0$A-MassElement-G
  6
Continuous
 62
   210
370
     5
100
AcDbLine
 10
21487.7949396315
 20
775.5743947929277
 30
0.0
 11
21487.7949396315
 21
626.5743947929276
 31
0.0
  0
LINE
  5
44
330
2
100
AcDbEntity
  8
teren$0$A-MassElement-G
  6
Continuous
 62
   210
370
     5
100
AcDbLine
 10
21487.7949396315
 20
626.5743947929276
 30
0.0
 11
21843.79493963148
 21
626.5743947929259
 31
0.0
  0
LINE
  5
45
330
2
100
AcDbEntity
  8
teren$0$A-MassElement-G
  6
Continuous
 62
   210
370
     5
100
AcDbLine
 10
21843.79493963148
 20
656.5743947929277
 30
0.0
 11
21517.79493963149
 21
656.5743947929277
 31
0.0
  0
LINE
  5
46
330
2
100
AcDbEntity
  8
teren$0$A-MassElement-G
  6
Continuous
 62
   210
370
     5
100
AcDbLine
 10
21517.79493963149
 20
656.5743947929277
 30
0.0
 11
21517.79493963149
 21
745.5743947929277
 31
0.0
  0
LINE
  5
47
330
2
100
AcDbEntity
  8
teren$0$A-MassElement-G
  6
Continuous
 62
   210
370
     5
100
AcDbLine
 10
20811.75903630112
 20
1172.574394792515
 30
0.0
 11
20811.75903630112
 21
1287.630208046664
 31
0.0
  0
LINE
  5
48
330
2
100
AcDbEntity
  8
teren$0$A-MassElement-G
  6
Continuous
 62
   210
370
     5
100
AcDbLine
 10
20811.75903630112
 20
1172.574394792515
 30
0.0
 11
21141.79493963148
 21
1172.574394792515
 31
0.0
  0
LINE
  5
49
330
2
100
AcDbEntity
  8
teren$0$A-MassElement-G
  6
Continuous
 62
   210
370
     5
100
AcDbLine
 10
20811.75903630112
 20
1202.574394792515
 30
0.0
 11
21141.79493963148
 21
1202.574394792515
 31
0.0
  0
LINE
  5
4A
330
2
100
AcDbEntity
  8
teren$0$A-MassElement-G
  6
Continuous
 62
   210
370
     5
100
AcDbLine
 10
21380.79493963148
 20
2096.574394792522
 30
0.0
 11
21380.79493963148
 21
2156.574394792522
 31
0.0
  0
LINE
  5
4B
330
2
100
AcDbEntity
  8
teren$0$A-MassElement-G
  6
Continuous
 62
   210
370
     5
100
AcDbLine
 10
20811.84888828849
 20
2156.574394792522
 30
0.0
 11
21380.79493963148
 21
2156.574394792522
 31
0.0
  0
LINE
  5
4C
330
2
100
AcDbEntity
  8
teren$0$A-MassElement-G
  6
Continuous
 62
   210
370
     5
100
AcDbLine
 10
20811.8488882885
 20
1655.575158503187
 30
0.0
 11
20811.84888828849
 21
2156.574394792522
 31
0.0
  0
ARC
  5
4D
330
2
100
AcDbEntity
  8
teren$0$A-MassElement-G
  6
Continuous
 62
   210
370
     5
100
AcDbCircle
 10
20851.80149062864
 20
1471.589094687362
 30
0.0
 40
188.1115908276224
100
AcDbArc
 50
108.613662372215
 51
251.386337627785
  0
LINE
  5
4E
330
2
100
AcDbEntity
  8
teren$0$A-MassElement-G
  6
Continuous
 62
   210
370
     5
100
AcDbLine
 10
20811.75903630112
 20
1232.57439479251
 30
0.0
 11
21141.79493963148
 21
1232.57439479251
 31
0.0
  0
LINE
  5
4F
330
2
100
AcDbEntity
  8
teren$0$A-MassElement-G
  6
Continuous
 62
   210
370
     5
100
AcDbLine
 10
20781.8488882885
 20
1790.574394792499
 30
0.0
 11
20811.84888828849
 21
1790.574394792499
 31
0.0
  0
LINE
  5
50
330
2
100
AcDbEntity
  8
teren$0$A-MassElement-G
  6
Continuous
 62
   210
370
     5
100
AcDbLine
 10
20811.84888828849
 20
1978.922703811852
 30
0.0
 11
20781.8488882885
 21
1978.922703811852
 31
0.0
  0
LINE
  5
51
330
2
100
AcDbEntity
  8
teren$0$A-MassElement-G
  6
Continuous
 62
   210
370
     5
100
AcDbLine
 10
20751.8488882885
 20
2008.922703811853
 30
0.0
 11
20751.8488882885
 21
1760.574394792496
 31
0.0
  0
LINE
  5
52
330
2
100
AcDbEntity
  8
teren$0$A-MassElement-G
  6
Continuous
 62
   210
370
     5
100
AcDbLine
 10
20781.8488882885
 20
1760.574394792496
 30
0.0
 11
20781.8488882885
 21
2008.922703811853
 31
0.0
  0
LINE
  5
53
330
2
100
AcDbEntity
  8
teren$0$A-MassElement-G
  6
Continuous
 62
   210
370
     5
100
AcDbLine
 10
20781.8488882885
 20
2008.922703811853
 30
0.0
 11
20751.8488882885
 21
2008.922703811853
 31
0.0
  0
LINE
  5
54
330
2
100
AcDbEntity
  8
teren$0$A-MassElement-G
  6
Continuous
 62
   210
370
     5
100
AcDbLine
 10
22310.89653520267
 20
1513.729954590241
 30
0.0
 11
22310.89653520267
 21
1453.729954590241
 31
0.0
  0
LINE
  5
55
330
2
100
AcDbEntity
  8
teren$0$A-MassElement-G
  6
Continuous
 62
   210
370
     5
100
AcDbLine
 10
22470.89653520267
 20
1453.729954590241
 30
0.0
 11
22470.89653520267
 21
1513.729954590241
 31
0.0
  0
LINE
  5
56
330
2
100
AcDbEntity
  8
teren$0$A-MassElement-G
  6
Continuous
 62
   210
370
     5
100
AcDbLine
 10
22470.89653520267
 20
1513.729954590241
 30
0.0
 11
22310.89653520267
 21
1513.729954590241
 31
0.0
  0
LINE
  5
57
330
2
100
AcDbEntity
  8
teren$0$A-WallBelow-G
  6
Continuous
 62
     8
370
     5
390
5A
100
AcDbLine
 10
20781.8488882885
 20
1172.574394792522
 30
0.0
 11
20811.8488882885
 21
1172.574394792522
 31
0.0
  0
LINE
  5
5B
330
2
100
AcDbEntity
  8
teren$0$A-WallBelow-G
  6
Continuous
 62
     8
370
     5
390
5A
100
AcDbLine
 10
20811.8488882885
 20
1172.574394792522
 30
0.0
 11
20811.8488882885
 21
1287.606795979399
 31
0.0
  0
LINE
  5
5C
330
2
100
AcDbEntity
  8
teren$0$A-WallBelow-G
  6
Continuous
 62
     8
370
     5
390
5A
100
AcDbLine
 10
20781.8488882885
 20
1264.999405982436
 30
0.0
 11
20781.8488882885
 21
1172.574394792522
 31
0.0
  0
LINE
  5
5D
330
2
100
AcDbEntity
  8
teren$0$A-WallBelow-G
  6
Continuous
 62
     8
370
     5
390
5A
100
AcDbLine
 10
21141.79493963148
 20
2156.574394792521
 30
0.0
 11
21141.79493963148
 21
2186.574394792521
 31
0.0
  0
LINE
  5
5E
330
2
100
AcDbEntity
  8
teren$0$A-WallBelow-G
  6
Continuous
 62
     8
370
     5
390
5A
100
AcDbLine
 10
21141.79493963148
 20
2186.574394792521
 30
0.0
 11
20781.84888828849
 21
2186.574394792518
 31
0.0
  0
LINE
  5
5F
330
2
100
AcDbEntity
  8
teren$0$A-WallBelow-G
  6
Continuous
 62
     8
370
     5
390
5A
100
AcDbLine
 10
20811.84888828849
 20
2156.574394792519
 30
0.0
 11
21141.79493963148
 21
2156.574394792521
 31
0.0
  0
ARC
  5
60
330
2
100
AcDbEntity
  8
teren$0$A-WallBelow-G
  6
Continuous
 62
     8
370
     5
390
5A
100
AcDbCircle
 10
20851.80149062864
 20
1471.589094687362
 30
0.0
 40
218.1115908276245
100
AcDbArc
 50
108.7064322250532
 51
251.2935677749468
  0
ARC
  5
61
330
2
100
AcDbEntity
  8
teren$0$A-WallBelow-G
  6
Continuous
 62
     8
370
     5
390
5A
100
AcDbCircle
 10
-20851.80149062864
 20
1471.589094687362
 30
0.0
 40
188.1115908276244
210
0.0
220
0.0
230
-1.0
100
AcDbArc
 50
284.6044054744996
 51
75.36873917560895
  0
LINE
  5
62
330
2
100
AcDbEntity
  8
teren$0$A-WallBelow-G
  6
Continuous
 62
     8
370
     5
390
5A
100
AcDbLine
 10
20811.8488882885
 20
1655.575158503187
 30
0.0
 11
20811.8488882885
 21
1790.574394792499
 31
0.0
  0
LINE
  5
63
330
2
100
AcDbEntity
  8
teren$0$A-WallBelow-G
  6
Continuous
 62
     8
370
     5
390
5A
100
AcDbLine
 10
20811.8488882885
 20
1790.574394792499
 30
0.0
 11
20781.8488882885
 21
1790.574394792498
 31
0.0
  0
LINE
  5
64
330
2
100
AcDbEntity
  8
teren$0$A-WallBelow-G
  6
Continuous
 62
     8
370
     5
390
5A
100
AcDbLine
 10
20781.8488882885
 20
1790.574394792498
 30
0.0
 11
20781.8488882885
 21
1678.178783392289
 31
0.0
  0
LINE
  5
65
330
2
100
AcDbEntity
  8
teren$0$A-WallBelow-G
  6
Continuous
 62
     8
370
     5
390
5A
100
AcDbLine
 10
20781.84888828849
 20
1978.922703811851
 30
0.0
 11
20811.84888828849
 21
1978.922703811852
 31
0.0
  0
LINE
  5
66
330
2
100
AcDbEntity
  8
teren$0$A-WallBelow-G
  6
Continuous
 62
     8
370
     5
390
5A
100
AcDbLine
 10
20811.84888828849
 20
1978.922703811852
 30
0.0
 11
20811.84888828849
 21
2156.574394792519
 31
0.0
  0
LINE
  5
67
330
2
100
AcDbEntity
  8
teren$0$A-WallBelow-G
  6
Continuous
 62
     8
370
     5
390
5A
100
AcDbLine
 10
20781.84888828849
 20
2186.574394792518
 30
0.0
 11
20781.84888828849
 21
1978.922703811851
 31
0.0
  0
HATCH
  5
68
330
2
100
AcDbEntity
  8
0Hatch
 48
4.0
370
     5
100
AcDbHatch
 10
0.0
 20
0.0
 30
0.0
210
0.0
220
0.0
230
1.0
  2
SOLID
 70
     1
 71
     1
 91
        1
 92
        7
 72
     0
 73
     1
 93
        4
 10
21148.79493963148
 20
2089.574394792522
 10
21148.79493963148
 20
2050.574394792522
 10
21187.79493963148
 20
2050.574394792522
 10
21187.79493963148
 20
2089.574394792522
 97
        4
330
70
330
6A
330
6E
330
6F
 75
     0
 76
     1
 47
0.5268886521255616
 98
        1
 10
21170.32428284694
 20
2074.336234162863
1001
ACAD
1010
0.0
1020
0.0
1030
0.0
  0
HATCH
  5
69
330
2
100
AcDbEntity
  8
0Hatch
 48
4.0
370
     5
100
AcDbHatch
 10
0.0
 20
0.0
 30
0.0
210
0.0
220
0.0
230
1.0
  2
SOLID
 70
     1
 71
     1
 91
        2
 92
        7
 72
     0
 73
     1
 93
        4
 10
21192.79493963148
 20
2094.574394792522
 10
21143.79493963148
 20
2094.574394792522
 10
21143.79493963148
 20
2045.574394792522
 10
21192.79493963148
 20
2045.574394792522
 97
        4
330
74
330
71
330
72
330
73
 92
       22
 72
     0
 73
     1
 93
        4
 10
21187.79493963148
 20
2089.574394792522
 10
21187.79493963148
 20
2050.574394792522
 10
21148.79493963148
 20
2050.574394792522
 10
21148.79493963148
 20
2089.574394792522
 97
        4
330
6F
330
6E
330
6A
330
70
 75
     0
 76
     1
 47
0.5268886521255616
 98
        2
 10
21161.8880696948
 20
2093.304223778202
 10
21161.8880696948
 20
2093.304223778202
1001
ACAD
1010
0.0
1020
0.0
1030
0.0
  0
LINE
  5
6A
102
{ACAD_REACTORS
330
68
330
69
102
}
330
2
100
AcDbEntity
  8
A-MassElement-G
  6
Continuous
 62
   210
370
     5
100
AcDbLine
 10
21148.79493963148
 20
2089.574394792522
 30
0.0
 11
21148.79493963148
 21
2050.574394792522
 31
0.0
  0
LINE
  5
6E
102
{ACAD_REACTORS
330
68
330
69
102
}
330
2
100
AcDbEntity
  8
A-MassElement-G
  6
Continuous
 62
   210
370
     5
100
AcDbLine
 10
21148.79493963148
 20
2050.574394792522
 30
0.0
 11
21187.79493963148
 21
2050.574394792522
 31
0.0
  0
LINE
  5
6F
102
{ACAD_REACTORS
330
68
330
69
102
}
330
2
100
AcDbEntity
  8
A-MassElement-G
  6
Continuous
 62
   210
370
     5
100
AcDbLine
 10
21187.79493963148
 20
2050.574394792522
 30
0.0
 11
21187.79493963148
 21
2089.574394792522
 31
0.0
  0
LINE
  5
70
102
{ACAD_REACTORS
330
68
330
69
102
}
330
2
100
AcDbEntity
  8
A-MassElement-G
  6
Continuous
 62
   210
370
     5
100
AcDbLine
 10
21187.79493963148
 20
2089.574394792522
 30
0.0
 11
21148.79493963148
 21
2089.574394792522
 31
0.0
  0
LINE
  5
71
102
{ACAD_REACTORS
330
69
102
}
330
2
100
AcDbEntity
  8
A-MassElement-G
  6
Continuous
 62
   210
370
     5
100
AcDbLine
 10
21143.79493963148
 20
2094.574394792522
 30
0.0
 11
21143.79493963148
 21
2045.574394792522
 31
0.0
  0
LINE
  5
72
102
{ACAD_REACTORS
330
69
102
}
330
2
100
AcDbEntity
  8
A-MassElement-G
  6
Continuous
 62
   210
370
     5
100
AcDbLine
 10
21143.79493963148
 20
2045.574394792522
 30
0.0
 11
21192.79493963148
 21
2045.574394792522
 31
0.0
  0
LINE
  5
73
102
{ACAD_REACTORS
330
69
102
}
330
2
100
AcDbEntity
  8
A-MassElement-G
  6
Continuous
 62
   210
370
     5
100
AcDbLine
 10
21192.79493963148
 20
2045.574394792522
 30
0.0
 11
21192.79493963148
 21
2094.574394792522
 31
0.0
  0
LINE
  5
74
102
{ACAD_REACTORS
330
69
102
}
330
2
100
AcDbEntity
  8
A-MassElement-G
  6
Continuous
 62
   210
370
     5
100
AcDbLine
 10
21192.79493963148
 20
2094.574394792522
 30
0.0
 11
21143.79493963148
 21
2094.574394792522
 31
0.0
  0
LINE
  5
75
330
2
100
AcDbEntity
  8
A-Wall-G
  6
Continuous
 62
     7
370
     5
100
AcDbLine
 10
21557.79493963149
 20
846.574394792522
 30
0.0
 11
21557.79493963149
 21
786.5743947925221
 31
0.0
  0
LINE
  5
76
330
2
100
AcDbEntity
  8
A-Wall-G
  6
Continuous
 62
     7
370
     5
100
AcDbLine
 10
21557.79493963149
 20
786.5743947925221
 30
0.0
 11
21596.7949396315
 21
786.5743947925221
 31
0.0
  0
LINE
  5
77
330
2
100
AcDbEntity
  8
A-Wall-G
  6
Continuous
 62
     7
370
     5
100
AcDbLine
 10
21596.7949396315
 20
786.5743947925221
 30
0.0
 11
21596.7949396315
 21
846.574394792522
 31
0.0
  0
LINE
  5
78
330
2
100
AcDbEntity
  8
A-MassElement-G
  6
Continuous
 62
   210
370
     5
100
AcDbLine
 10
21552.7949396315
 20
846.574394792522
 30
0.0
 11
21552.7949396315
 21
781.5743947925221
 31
0.0
  0
LINE
  5
79
330
2
100
AcDbEntity
  8
A-MassElement-G
  6
Continuous
 62
   210
370
     5
100
AcDbLine
 10
21552.7949396315
 20
781.5743947925221
 30
0.0
 11
21601.79493963149
 21
781.5743947925221
 31
0.0
  0
LINE
  5
7A
330
2
100
AcDbEntity
  8
A-MassElement-G
  6
Continuous
 62
   210
370
     5
100
AcDbLine
 10
21601.79493963149
 20
781.5743947925221
 30
0.0
 11
21601.79493963149
 21
846.574394792522
 31
0.0
  0
LINE
  5
7B
330
2
100
AcDbEntity
  8
A-Wall-G
  6
Continuous
 62
     7
370
     5
100
AcDbLine
 10
21857.79493963146
 20
786.5743947925221
 30
0.0
 11
21818.79493963147
 21
786.5743947925221
 31
0.0
  0
LINE
  5
7C
330
2
100
AcDbEntity
  8
A-Wall-G
  6
Continuous
 62
     7
370
     5
100
AcDbLine
 10
21818.79493963147
 20
786.5743947925221
 30
0.0
 11
21818.79493963147
 21
846.574394792522
 31
0.0
  0
LINE
  5
7D
330
2
100
AcDbEntity
  8
A-MassElement-G
  6
Continuous
 62
   210
370
     5
100
AcDbLine
 10
21862.79493963147
 20
781.5743947925221
 30
0.0
 11
21813.79493963147
 21
781.5743947925221
 31
0.0
  0
LINE
  5
7E
330
2
100
AcDbEntity
  8
A-MassElement-G
  6
Continuous
 62
   210
370
     5
100
AcDbLine
 10
21813.79493963147
 20
781.5743947925221
 30
0.0
 11
21813.79493963147
 21
846.574394792522
 31
0.0
  0
LINE
  5
7F
330
2
100
AcDbEntity
  8
A-Wall-G
  6
Continuous
 62
     7
370
     5
100
AcDbLine
 10
21757.79491423148
 20
906.574394792522
 30
0.0
 11
21757.79491423148
 21
846.574394792522
 31
0.0
  0
LINE
  5
80
330
2
100
AcDbEntity
  8
A-Wall-G
  6
Continuous
 62
     7
370
     5
100
AcDbLine
 10
21657.79491423148
 20
846.574394792522
 30
0.0
 11
21657.79491423148
 21
906.574394792522
 31
0.0
  0
LINE
  5
81
330
2
100
AcDbEntity
  8
A-Wall-G
  6
Continuous
 62
     7
370
     5
100
AcDbLine
 10
22454.29491423148
 20
586.5743947929258
 30
0.0
 11
22454.29491423148
 21
526.5743947929259
 31
0.0
  0
LINE
  5
82
330
2
100
AcDbEntity
  8
A-Wall-G
  6
Continuous
 62
     7
370
     5
100
AcDbLine
 10
22166.29493963148
 20
586.5743947929258
 30
0.0
 11
22166.29493963148
 21
526.5743947929259
 31
0.0
  0
LINE
  5
83
330
2
100
AcDbEntity
  8
A-Wall-G
  6
Continuous
 62
     7
370
     5
100
AcDbLine
 10
22204.29491423148
 20
526.5743947929259
 30
0.0
 11
22204.29491423148
 21
586.5743947929258
 31
0.0
  0
LINE
  5
84
330
2
100
AcDbEntity
  8
A-Wall-G
  6
Continuous
 62
     7
370
     5
100
AcDbLine
 10
21916.29493963148
 20
526.5743947929259
 30
0.0
 11
21916.29493963148
 21
586.5743947929258
 31
0.0
  0
LINE
  5
85
330
2
100
AcDbEntity
  8
teren$0$A-MassElement-G
  6
Continuous
 62
   210
370
     5
100
AcDbLine
 10
20751.8488882885
 20
1760.574394792544
 30
0.0
 11
20781.8488882885
 21
1760.574394792544
 31
0.0
  0
LINE
  5
86
330
2
100
AcDbEntity
  8
teren$0$A-MassElement-G
  6
Continuous
 62
   210
370
     5
100
AcDbLine
 10
21527.7949396315
 20
775.5743947929277
 30
0.0
 11
21487.7949396315
 21
775.5743947929277
 31
0.0
  0
LINE
  5
87
330
2
100
AcDbEntity
  8
A-Wall-G
  6
Continuous
 62
     7
370
     5
100
AcDbLine
 10
21215.42309943965
 20
1730.574394792522
 30
0.0
 11
21215.42309943965
 21
1790.574394792522
 31
0.0
  0
LINE
  5
88
330
2
100
AcDbEntity
  8
A-Wall-G
  6
Continuous
 62
     7
370
     5
100
AcDbLine
 10
21325.42309943965
 20
1790.574394792522
 30
0.0
 11
21325.42309943965
 21
1730.574394792522
 31
0.0
  0
LINE
  5
89
330
2
100
AcDbEntity
  8
A-Wall-G
  6
Continuous
 62
     7
370
     5
100
AcDbLine
 10
22340.89653520266
 20
1393.729954590241
 30
0.0
 11
22340.89653520266
 21
1453.72995459024
 31
0.0
  0
LINE
  5
8A
330
2
100
AcDbEntity
  8
A-Wall-G
  6
Continuous
 62
     7
370
     5
100
AcDbLine
 10
22440.89653520267
 20
1453.729954590241
 30
0.0
 11
22440.89653520267
 21
1393.729954590241
 31
0.0
  0
HATCH
  5
8B
330
2
100
AcDbEntity
  8
0Hatch
 48
4.0
370
     5
100
AcDbHatch
 10
0.0
 20
0.0
 30
0.0
210
0.0
220
0.0
230
1.0
  2
SOLID
 70
     1
 71
     0
 91
        1
 92
        7
 72
     0
 73
     1
 93
        8
 10
25562.94462235477
 20
586.5743947929258
 10
25550.44462235477
 20
586.5743947929258
 10
25550.44462235477
 20
526.5743947929259
 10
25622.94462235477
 20
526.574394792926
 10
25622.94462235477
 20
846.5743947925219
 10
25708.94464775477
 20
846.574394792522
 10
25708.94464775478
 20
906.574394792522
 10
25562.94462235477
 20
906.574394792522
 97
        0
 75
     0
 76
     1
 47
0.8912641135281717
 98
        1
 10
25591.23205388205
 20
816.4067144111422
1001
ACAD
1010
0.0
1020
0.0
1030
0.0
  0
HATCH
  5
8C
330
2
100
AcDbEntity
  8
0Hatch
 48
4.0
370
     5
100
AcDbHatch
 10
0.0
 20
0.0
 30
0.0
210
0.0
220
0.0
230
1.0
  2
SOLID
 70
     1
 71
     0
 91
        1
 92
        7
 72
     0
 73
     1
 93
        4
 10
25908.94462235475
 20
846.5743947925219
 10
25869.94462235476
 20
846.5743947925219
 10
25869.94462235476
 20
786.5743947925222
 10
25908.94462235476
 20
786.5743947925221
 97
        0
 75
     0
 76
     1
 47
0.6135550228320247
 98
        1
 10
25890.82957848611
 20
819.524319109546
1001
ACAD
1010
0.0
1020
0.0
1030
0.0
  0
HATCH
  5
8D
330
2
100
AcDbEntity
  8
0Hatch
 48
4.0
370
     5
100
AcDbHatch
 10
0.0
 20
0.0
 30
0.0
210
0.0
220
0.0
230
1.0
  2
SOLID
 70
     1
 71
     0
 91
        1
 92
        7
 72
     0
 73
     1
 93
        4
 10
25622.94462235477
 20
843.574394792523
 10
25647.94462235479
 20
843.574394792523
 10
25647.94462235479
 20
786.574394792523
 10
25622.94462235477
 20
786.5743947925211
 97
        0
 75
     0
 76
     1
 47
0.6135550228320247
 98
        1
 10
25638.48259547186
 20
815.84300804973
1001
ACAD
1010
0.0
1020
0.0
1030
0.0
  0
HATCH
  5
8E
330
2
100
AcDbEntity
  8
0Hatch
 48
4.0
370
     5
100
AcDbHatch
 10
0.0
 20
0.0
 30
0.0
210
0.0
220
0.0
230
1.0
  2
SOLID
 70
     1
 71
     0
 91
        1
 92
        7
 72
     0
 73
     1
 93
        6
 10
25647.94462235479
 20
843.574394792523
 10
25652.94462235478
 20
843.5743947925239
 10
25652.94462235478
 20
781.5743947925211
 10
25622.94462235477
 20
781.5743947925221
 10
25622.94462235477
 20
786.5743947925238
 10
25647.94462235479
 20
786.574394792523
 97
        0
 75
     0
 76
     1
 47
0.2116228054418701
 98
        1
 10
25650.40563898576
 20
800.1576453599509
1001
ACAD
1010
0.0
1020
0.0
1030
0.0
  0
HATCH
  5
8F
330
2
100
AcDbEntity
  8
0Hatch
 48
4.0
370
     5
100
AcDbHatch
 10
0.0
 20
0.0
 30
0.0
210
0.0
220
0.0
230
1.0
  2
SOLID
 70
     1
 71
     0
 91
        1
 92
        7
 72
     0
 73
     1
 93
        8
 10
25864.94462235476
 20
846.5743947925229
 10
25869.94462235476
 20
846.5743947925229
 10
25869.94462235476
 20
786.5743947925238
 10
25908.94462235476
 20
786.5743947925221
 10
25908.94462235476
 20
846.574394792522
 10
25913.94462235476
 20
846.574394792522
 10
25913.94462235476
 20
781.5743947925211
 10
25864.94462235476
 20
781.5743947925221
 97
        0
 75
     0
 76
     1
 47
0.1470408253258471
 98
        1
 10
25867.04315058097
 20
798.5197399648995
1001
ACAD
1010
0.0
1020
0.0
1030
0.0
  0
HATCH
  5
90
330
2
100
AcDbEntity
  8
0Hatch
 48
4.0
370
     5
100
AcDbHatch
 10
0.0
 20
0.0
 30
0.0
210
0.0
220
0.0
230
1.0
  2
SOLID
 70
     1
 71
     0
 91
        1
 92
        7
 72
     0
 73
     1
 93
        4
 10
25647.94462235479
 20
846.5743947925229
 10
25652.94462235479
 20
846.574394792522
 10
25652.94462235479
 20
843.574394792523
 10
25647.94462235479
 20
843.5743947925221
 97
        0
 75
     0
 76
     1
 47
0.0394813793982736
 98
        1
 10
25649.57144432842
 20
844.4956499344216
1001
ACAD
1010
0.0
1020
0.0
1030
0.0
  0
HATCH
  5
91
330
2
100
AcDbEntity
  8
0Hatch
 48
4.0
370
     5
100
AcDbHatch
 10
0.0
 20
0.0
 30
0.0
210
0.0
220
0.0
230
1.0
  2
SOLID
 70
     1
 71
     0
 91
        1
 92
        7
 72
     0
 73
     1
 93
        4
 10
25622.94462235477
 20
846.574394792522
 10
25647.94462235479
 20
846.574394792522
 10
25647.94462235479
 20
843.574394792523
 10
25622.94462235477
 20
843.5743947925221
 97
        0
 75
     0
 76
     1
 47
0.1010721203249812
 98
        1
 10
25641.70005585604
 20
844.9992068898527
1001
ACAD
1010
0.0
1020
0.0
1030
0.0
  0
HATCH
  5
92
330
2
100
AcDbEntity
  8
0Hatch
 48
4.0
370
     5
100
AcDbHatch
 10
0.0
 20
0.0
 30
0.0
210
0.0
220
0.0
230
1.0
  2
SOLID
 70
     1
 71
     0
 91
        3
 92
        7
 72
     0
 73
     1
 93
       12
 10
25204.94462235477
 20
2096.574394792522
 10
26115.94462235477
 20
2096.574394792522
 10
26115.94462235477
 20
1790.574394792522
 10
26141.3164625466
 20
1790.574394792522
 10
26141.3164625466
 20
1730.574394792522
 10
26055.94462235477
 20
1730.574394792522
 10
26055.94462235477
 20
2036.574394792522
 10
25264.94462235477
 20
2036.574394792523
 10
25264.94462235477
 20
1393.729954590241
 10
25125.84302678359
 20
1393.729954590241
 10
25125.84302678359
 20
1453.729954590241
 10
25204.94462235477
 20
1453.729954590241
 97
        0
 92
        7
 72
     0
 73
     1
 93
        8
 10
24939.94462235477
 20
1453.729954590241
 10
25025.84302678359
 20
1453.729954590241
 10
25025.84302678359
 20
1393.729954590241
 10
24999.94462235477
 20
1393.729954590241
 10
24999.94462235477
 20
586.5743947929258
 10
25012.44464775477
 20
586.5743947929258
 10
25012.44464775477
 20
526.5743947929258
 10
24939.94462235477
 20
526.5743947929259
 97
        0
 92
        7
 72
     0
 73
     1
 93
       20
 10
26336.6946009112
 20
1650.574394792522
 10
26264.94462235477
 20
1650.574394792522
 10
26264.94462235477
 20
1730.574394792522
 10
26251.3164625466
 20
1730.574394792522
 10
26251.3164625466
 20
1790.574394792522
 10
26324.94462235477
 20
1790.574394792522
 10
26324.94462235477
 20
1710.574394792522
 10
26361.54741465358
 20
1710.574394792522
 10
26464.94462235477
 20
1607.177187091322
 10
26464.94462235477
 20
1335.971602493713
 10
26361.54741465356
 20
1232.57439479251
 10
26324.94462235477
 20
1232.57439479251
 10
26324.94462235478
 20
846.5743947925219
 10
25808.94464775477
 20
846.5743947925222
 10
25808.94464775477
 20
906.574394792522
 10
26264.94462235477
 20
906.5743947925223
 10
26264.94462235477
 20
1292.574394792546
 10
26336.69460091119
 20
1292.574394792517
 10
26404.94462235478
 20
1360.824416236102
 10
26404.94462235477
 20
1582.32437334894
 97
        0
 75
     0
 76
     1
 47
4.01356076319539
 98
        3
 10
25236.39794785895
 20
2006.976187149247
 10
24955.32245291093
 20
1132.019883208001
 10
26428.96087010305
 20
1593.579357775302
1001
ACAD
1010
0.0
1020
0.0
1030
0.0
  0
HATCH
  5
93
330
2
100
AcDbEntity
  8
0Hatch
 48
4.0
370
     5
100
AcDbHatch
 10
0.0
 20
0.0
 30
0.0
210
0.0
220
0.0
230
1.0
  2
SOLID
 70
     1
 71
     0
 91
        1
 92
        7
 72
     0
 73
     1
 93
        4
 10
25262.44464775478
 20
526.5743947929259
 10
25300.44462235478
 20
526.5743947929259
 10
25300.44462235477
 20
586.5743947929258
 10
25262.44464775478
 20
586.5743947929258
 97
        0
 75
     0
 76
     1
 47
0.7869650035437
 98
        1
 10
25275.5376715669
 20
550.7430512585369
1001
ACAD
1010
0.0
1020
0.0
1030
0.0
  0
LINE
  5
94
330
2
100
AcDbEntity
  8
A-Wall-G
370
     5
100
AcDbLine
 10
26317.94462235477
 20
2089.574394792522
 30
0.0
 11
26278.94462235477
 21
2089.574394792522
 31
0.0
  0
LINE
  5
95
330
2
100
AcDbEntity
  8
A-Wall-G
370
     5
100
AcDbLine
 10
26278.94462235477
 20
2089.574394792522
 30
0.0
 11
26278.94462235477
 21
2050.574394792522
 31
0.0
  0
LINE
  5
96
330
2
100
AcDbEntity
  8
A-Wall-G
370
     5
100
AcDbLine
 10
26278.94462235477
 20
2050.574394792522
 30
0.0
 11
26317.94462235477
 21
2050.574394792522
 31
0.0
  0
LINE
  5
97
330
2
100
AcDbEntity
  8
A-Wall-G
370
     5
100
AcDbLine
 10
26317.94462235477
 20
2050.574394792522
 30
0.0
 11
26317.94462235477
 21
2089.574394792522
 31
0.0
  0
LINE
  5
98
330
2
100
AcDbEntity
  8
teren$0$A-MassElement-G
  6
Continuous
 62
   210
370
     5
100
AcDbLine
 10
26324.94462235477
 20
2186.574394792522
 30
0.0
 11
26324.94462235477
 21
2156.574394792522
 31
0.0
  0
LINE
  5
99
330
2
100
AcDbEntity
  8
teren$0$A-MassElement-G
  6
Continuous
 62
   210
370
     5
100
AcDbLine
 10
26354.94462235477
 20
2186.574394792522
 30
0.0
 11
26055.94462235477
 21
2186.574394792522
 31
0.0
  0
LINE
  5
9A
330
2
100
AcDbEntity
  8
teren$0$A-MassElement-G
  6
Continuous
 62
   210
370
     5
100
AcDbLine
 10
26055.94462235477
 20
2186.574394792522
 30
0.0
 11
26055.94462235477
 21
2096.574394792522
 31
0.0
  0
LINE
  5
9B
330
2
100
AcDbEntity
  8
teren$0$A-MassElement-G
  6
Continuous
 62
   210
370
     5
100
AcDbLine
 10
26025.94462235477
 20
2096.574394792522
 30
0.0
 11
26025.94462235477
 21
2216.574394792522
 31
0.0
  0
LINE
  5
9C
330
2
100
AcDbEntity
  8
teren$0$A-MassElement-G
  6
Continuous
 62
   210
370
     5
100
AcDbLine
 10
26025.94462235477
 20
2216.574394792522
 30
0.0
 11
26354.94462235477
 21
2216.574394792522
 31
0.0
  0
LINE
  5
9D
330
2
100
AcDbEntity
  8
teren$0$A-MassElement-G
  6
Continuous
 62
   210
370
     5
100
AcDbLine
 10
26354.94462235477
 20
2216.574394792522
 30
0.0
 11
26354.94462235477
 21
2186.574394792522
 31
0.0
  0
3DFACE
  5
9E
330
2
100
AcDbEntity
  8
teren$0$A-MassElement-G
  6
Continuous
 62
   210
370
     5
100
AcDbFace
 10
25622.94462235477
 20
396.7364312990249
 30
0.0
 11
24939.94459695477
 21
396.7364312990249
 31
0.0
 12
24939.94459695477
 22
526.5743947929259
 32
0.0
 13
25622.94462235477
 23
526.5743947929259
 33
0.0
  0
3DFACE
  5
9F
330
2
100
AcDbEntity
  8
teren$0$A-MassElement-G
  6
Continuous
 62
   210
370
     5
100
AcDbFace
 10
24939.94459695477
 20
396.7364312990249
 30
0.0
 11
24939.94459695477
 21
306.574394792925
 31
0.0
 12
24939.94459695477
 22
526.5743947929259
 32
0.0
 13
24939.94459695477
 23
526.5743947929259
 33
0.0
  0
3DFACE
  5
A0
330
2
100
AcDbEntity
  8
teren$0$A-MassElement-G
  6
Continuous
 62
   210
370
     5
100
AcDbFace
 10
25622.94462235477
 20
306.574394792925
 30
0.0
 11
25622.94462235477
 21
526.5743947929259
 31
0.0
 12
24939.94459695477
 22
526.5743947929259
 32
0.0
 13
24939.94459695477
 23
306.574394792925
 33
0.0
  0
3DFACE
  5
A1
330
2
100
AcDbEntity
  8
teren$0$A-MassElement-G
  6
Continuous
 62
   210
370
     5
100
AcDbFace
 10
25622.94462235477
 20
306.574394792925
 30
0.0
 11
25622.94462235477
 21
396.7364312990249
 31
0.0
 12
25622.94462235477
 22
526.5743947929259
 32
0.0
 13
25622.94462235477
 23
526.5743947929259
 33
0.0
  0
3DFACE
  5
A2
330
2
100
AcDbEntity
  8
teren$0$A-MassElement-G
  6
Continuous
 62
   210
370
     5
100
AcDbFace
 10
25622.94462235477
 20
396.7364312990249
 30
0.0
 11
25622.94462235477
 21
306.574394792925
 31
0.0
 12
24939.94459695477
 22
306.574394792925
 32
0.0
 13
24939.94459695477
 23
396.7364312990249
 33
0.0
  0
LINE
  5
A3
330
2
100
AcDbEntity
  8
teren$0$A-MassElement-G
  6
Continuous
 62
   210
370
     5
100
AcDbLine
 10
25918.94462235476
 20
846.574394792522
 30
0.0
 11
25918.94462235476
 21
686.5743947929277
 31
0.0
  0
LINE
  5
A4
330
2
100
AcDbEntity
  8
teren$0$A-MassElement-G
  6
Continuous
 62
   210
370
     5
100
AcDbLine
 10
25948.94462235476
 20
745.5743947929277
 30
0.0
 11
25918.94462235476
 21
745.5743947929277
 31
0.0
  0
LINE
  5
A5
330
2
100
AcDbEntity
  8
teren$0$A-MassElement-G
  6
Continuous
 62
   210
370
     5
100
AcDbLine
 10
25622.94462235477
 20
686.5743947929277
 30
0.0
 11
25918.94462235476
 21
686.5743947929277
 31
0.0
  0
LINE
  5
A6
330
2
100
AcDbEntity
  8
teren$0$A-MassElement-G
  6
Continuous
 62
   210
370
     5
100
AcDbLine
 10
25938.94462235476
 20
745.5743947929277
 30
0.0
 11
25938.94462235476
 21
846.574394792522
 31
0.0
  0
LINE
  5
A7
330
2
100
AcDbEntity
  8
teren$0$A-MassElement-G
  6
Continuous
 62
   210
370
     5
100
AcDbLine
 10
25978.94462235476
 20
775.5743947929277
 30
0.0
 11
25978.94462235476
 21
626.5743947929276
 31
0.0
  0
LINE
  5
A8
330
2
100
AcDbEntity
  8
teren$0$A-MassElement-G
  6
Continuous
 62
   210
370
     5
100
AcDbLine
 10
25978.94462235476
 20
626.5743947929276
 30
0.0
 11
25622.94462235477
 21
626.5743947929259
 31
0.0
  0
LINE
  5
A9
330
2
100
AcDbEntity
  8
teren$0$A-MassElement-G
  6
Continuous
 62
   210
370
     5
100
AcDbLine
 10
25622.94462235477
 20
656.5743947929277
 30
0.0
 11
25948.94462235476
 21
656.5743947929277
 31
0.0
  0
LINE
  5
AA
330
2
100
AcDbEntity
  8
teren$0$A-MassElement-G
  6
Continuous
 62
   210
370
     5
100
AcDbLine
 10
25948.94462235476
 20
656.5743947929277
 30
0.0
 11
25948.94462235476
 21
745.5743947929277
 31
0.0
  0
LINE
  5
AB
330
2
100
AcDbEntity
  8
teren$0$A-MassElement-G
  6
Continuous
 62
   210
370
     5
100
AcDbLine
 10
26654.98052568513
 20
1172.574394792515
 30
0.0
 11
26654.98052568513
 21
1287.630208046664
 31
0.0
  0
LINE
  5
AC
330
2
100
AcDbEntity
  8
teren$0$A-MassElement-G
  6
Continuous
 62
   210
370
     5
100
AcDbLine
 10
26654.98052568513
 20
1172.574394792515
 30
0.0
 11
26324.94462235477
 21
1172.574394792515
 31
0.0
  0
LINE
  5
AD
330
2
100
AcDbEntity
  8
teren$0$A-MassElement-G
  6
Continuous
 62
   210
370
     5
100
AcDbLine
 10
26654.98052568513
 20
1202.574394792515
 30
0.0
 11
26324.94462235477
 21
1202.574394792515
 31
0.0
  0
LINE
  5
AE
330
2
100
AcDbEntity
  8
teren$0$A-MassElement-G
  6
Continuous
 62
   210
370
     5
100
AcDbLine
 10
26085.94462235477
 20
2096.574394792522
 30
0.0
 11
26085.94462235477
 21
2156.574394792522
 31
0.0
  0
LINE
  5
AF
330
2
100
AcDbEntity
  8
teren$0$A-MassElement-G
  6
Continuous
 62
   210
370
     5
100
AcDbLine
 10
26654.89067369776
 20
2156.574394792522
 30
0.0
 11
26085.94462235477
 21
2156.574394792522
 31
0.0
  0
LINE
  5
B0
330
2
100
AcDbEntity
  8
teren$0$A-MassElement-G
  6
Continuous
 62
   210
370
     5
100
AcDbLine
 10
26654.89067369775
 20
1655.575158503187
 30
0.0
 11
26654.89067369776
 21
2156.574394792522
 31
0.0
  0
ARC
  5
B1
330
2
100
AcDbEntity
  8
teren$0$A-MassElement-G
  6
Continuous
 62
   210
370
     5
100
AcDbCircle
 10
26614.93807135761
 20
1471.589094687362
 30
0.0
 40
188.1115908276224
100
AcDbArc
 50
288.613662372309
 51
71.38633762769102
  0
LINE
  5
B2
330
2
100
AcDbEntity
  8
teren$0$A-MassElement-G
  6
Continuous
 62
   210
370
     5
100
AcDbLine
 10
26654.98052568513
 20
1232.57439479251
 30
0.0
 11
26324.94462235477
 21
1232.57439479251
 31
0.0
  0
LINE
  5
B3
330
2
100
AcDbEntity
  8
teren$0$A-MassElement-G
  6
Continuous
 62
   210
370
     5
100
AcDbLine
 10
26684.89067369776
 20
1790.574394792499
 30
0.0
 11
26654.89067369776
 21
1790.574394792499
 31
0.0
  0
LINE
  5
B4
330
2
100
AcDbEntity
  8
teren$0$A-MassElement-G
  6
Continuous
 62
   210
370
     5
100
AcDbLine
 10
26654.89067369776
 20
1978.922703811852
 30
0.0
 11
26684.89067369776
 21
1978.922703811852
 31
0.0
  0
LINE
  5
B5
330
2
100
AcDbEntity
  8
teren$0$A-MassElement-G
  6
Continuous
 62
   210
370
     5
100
AcDbLine
 10
26714.89067369776
 20
2008.922703811853
 30
0.0
 11
26714.89067369776
 21
1760.574394792496
 31
0.0
  0
LINE
  5
B6
330
2
100
AcDbEntity
  8
teren$0$A-MassElement-G
  6
Continuous
 62
   210
370
     5
100
AcDbLine
 10
26684.89067369776
 20
1760.574394792496
 30
0.0
 11
26684.89067369776
 21
2008.922703811853
 31
0.0
  0
LINE
  5
B7
330
2
100
AcDbEntity
  8
teren$0$A-MassElement-G
  6
Continuous
 62
   210
370
     5
100
AcDbLine
 10
26684.89067369776
 20
2008.922703811853
 30
0.0
 11
26714.89067369776
 21
2008.922703811853
 31
0.0
  0
LINE
  5
B8
330
2
100
AcDbEntity
  8
teren$0$A-MassElement-G
  6
Continuous
 62
   210
370
     5
100
AcDbLine
 10
25155.84302678359
 20
1513.729954590241
 30
0.0
 11
25155.84302678359
 21
1453.729954590241
 31
0.0
  0
LINE
  5
B9
330
2
100
AcDbEntity
  8
teren$0$A-MassElement-G
  6
Continuous
 62
   210
370
     5
100
AcDbLine
 10
24995.84302678359
 20
1453.729954590241
 30
0.0
 11
24995.84302678359
 21
1513.729954590241
 31
0.0
  0
LINE
  5
BA
330
2
100
AcDbEntity
  8
teren$0$A-MassElement-G
  6
Continuous
 62
   210
370
     5
100
AcDbLine
 10
24995.84302678359
 20
1513.729954590241
 30
0.0
 11
25155.84302678359
 21
1513.729954590241
 31
0.0
  0
LINE
  5
BB
330
2
100
AcDbEntity
  8
teren$0$A-WallBelow-G
  6
Continuous
 62
     8
370
     5
390
5A
100
AcDbLine
 10
26684.89067369775
 20
1172.574394792522
 30
0.0
 11
26654.89067369775
 21
1172.574394792522
 31
0.0
  0
LINE
  5
BC
330
2
100
AcDbEntity
  8
teren$0$A-WallBelow-G
  6
Continuous
 62
     8
370
     5
390
5A
100
AcDbLine
 10
26654.89067369775
 20
1172.574394792522
 30
0.0
 11
26654.89067369775
 21
1287.606795979399
 31
0.0
  0
LINE
  5
BD
330
2
100
AcDbEntity
  8
teren$0$A-WallBelow-G
  6
Continuous
 62
     8
370
     5
390
5A
100
AcDbLine
 10
26684.89067369775
 20
1264.999405982436
 30
0.0
 11
26684.89067369775
 21
1172.574394792522
 31
0.0
  0
LINE
  5
BE
330
2
100
AcDbEntity
  8
teren$0$A-WallBelow-G
  6
Continuous
 62
     8
370
     5
390
5A
100
AcDbLine
 10
26324.94462235477
 20
2156.574394792521
 30
0.0
 11
26324.94462235477
 21
2186.574394792521
 31
0.0
  0
LINE
  5
BF
330
2
100
AcDbEntity
  8
teren$0$A-WallBelow-G
  6
Continuous
 62
     8
370
     5
390
5A
100
AcDbLine
 10
26324.94462235477
 20
2186.574394792521
 30
0.0
 11
26684.89067369776
 21
2186.574394792518
 31
0.0
  0
LINE
  5
C0
330
2
100
AcDbEntity
  8
teren$0$A-WallBelow-G
  6
Continuous
 62
     8
370
     5
390
5A
100
AcDbLine
 10
26654.89067369776
 20
2156.574394792519
 30
0.0
 11
26324.94462235477
 21
2156.574394792521
 31
0.0
  0
ARC
  5
C1
330
2
100
AcDbEntity
  8
teren$0$A-WallBelow-G
  6
Continuous
 62
     8
370
     5
390
5A
100
AcDbCircle
 10
26614.93807135761
 20
1471.589094687362
 30
0.0
 40
218.1115908276245
100
AcDbArc
 50
288.7064322250542
 51
71.29356777494574
  0
ARC
  5
C2
330
2
100
AcDbEntity
  8
teren$0$A-WallBelow-G
  6
Continuous
 62
     8
370
     5
390
5A
100
AcDbCircle
 10
-26614.93807135761
 20
1471.589094687362
 30
0.0
 40
188.1115908276244
210
0.0
220
0.0
230
-1.0
100
AcDbArc
 50
104.6312608242907
 51
255.3955945256972
  0
LINE
  5
C3
330
2
100
AcDbEntity
  8
teren$0$A-WallBelow-G
  6
Continuous
 62
     8
370
     5
390
5A
100
AcDbLine
 10
26654.89067369775
 20
1655.575158503187
 30
0.0
 11
26654.89067369775
 21
1790.574394792499
 31
0.0
  0
LINE
  5
C4
330
2
100
AcDbEntity
  8
teren$0$A-WallBelow-G
  6
Continuous
 62
     8
370
     5
390
5A
100
AcDbLine
 10
26654.89067369775
 20
1790.574394792499
 30
0.0
 11
26684.89067369775
 21
1790.574394792498
 31
0.0
  0
LINE
  5
C5
330
2
100
AcDbEntity
  8
teren$0$A-WallBelow-G
  6
Continuous
 62
     8
370
     5
390
5A
100
AcDbLine
 10
26684.89067369775
 20
1790.574394792498
 30
0.0
 11
26684.89067369775
 21
1678.178783392289
 31
0.0
  0
LINE
  5
C6
330
2
100
AcDbEntity
  8
teren$0$A-WallBelow-G
  6
Continuous
 62
     8
370
     5
390
5A
100
AcDbLine
 10
26684.89067369776
 20
1978.922703811851
 30
0.0
 11
26654.89067369776
 21
1978.922703811852
 31
0.0
  0
LINE
  5
C7
330
2
100
AcDbEntity
  8
teren$0$A-WallBelow-G
  6
Continuous
 62
     8
370
     5
390
5A
100
AcDbLine
 10
26654.89067369776
 20
1978.922703811852
 30
0.0
 11
26654.89067369776
 21
2156.574394792519
 31
0.0
  0
LINE
  5
C8
330
2
100
AcDbEntity
  8
teren$0$A-WallBelow-G
  6
Continuous
 62
     8
370
     5
390
5A
100
AcDbLine
 10
26684.89067369776
 20
2186.574394792518
 30
0.0
 11
26684.89067369776
 21
1978.922703811851
 31
0.0
  0
HATCH
  5
C9
330
2
100
AcDbEntity
  8
0Hatch
 48
4.0
370
     5
100
AcDbHatch
 10
0.0
 20
0.0
 30
0.0
210
0.0
220
0.0
230
1.0
  2
SOLID
 70
     1
 71
     1
 91
        1
 92
        7
 72
     0
 73
     1
 93
        4
 10
26278.94462235477
 20
2089.574394792522
 10
26278.94462235477
 20
2050.574394792522
 10
26317.94462235477
 20
2050.574394792522
 10
26317.94462235477
 20
2089.574394792522
 97
        4
330
CE
330
CB
330
CC
330
CD
 75
     0
 76
     1
 47
0.5268886521255616
 98
        1
 10
26296.41527913932
 20
2074.336234162863
1001
ACAD
1010
0.0
1020
0.0
1030
0.0
  0
HATCH
  5
CA
330
2
100
AcDbEntity
  8
0Hatch
 48
4.0
370
     5
100
AcDbHatch
 10
0.0
 20
0.0
 30
0.0
210
0.0
220
0.0
230
1.0
  2
SOLID
 70
     1
 71
     1
 91
        2
 92
        7
 72
     0
 73
     1
 93
        4
 10
26273.94462235478
 20
2045.574394792522
 10
26322.94462235477
 20
2045.574394792522
 10
26322.94462235477
 20
2094.574394792521
 10
26273.94462235477
 20
2094.574394792522
 97
        4
330
D2
330
CF
330
D0
330
D1
 92
       22
 72
     0
 73
     1
 93
        4
 10
26278.94462235477
 20
2089.574394792522
 10
26278.94462235477
 20
2050.574394792522
 10
26317.94462235477
 20
2050.574394792522
 10
26317.94462235477
 20
2089.574394792522
 97
        4
330
CD
330
CC
330
CB
330
CE
 75
     0
 76
     1
 47
0.5268886521255616
 98
        2
 10
26304.85149229145
 20
2093.304223778202
 10
26304.85149229145
 20
2093.304223778202
1001
ACAD
1010
0.0
1020
0.0
1030
0.0
  0
LINE
  5
CB
102
{ACAD_REACTORS
330
C9
330
CA
102
}
330
2
100
AcDbEntity
  8
A-MassElement-G
  6
Continuous
 62
   210
370
     5
100
AcDbLine
 10
26317.94462235477
 20
2089.574394792522
 30
0.0
 11
26317.94462235477
 21
2050.574394792522
 31
0.0
  0
LINE
  5
CC
102
{ACAD_REACTORS
330
C9
330
CA
102
}
330
2
100
AcDbEntity
  8
A-MassElement-G
  6
Continuous
 62
   210
370
     5
100
AcDbLine
 10
26317.94462235477
 20
2050.574394792522
 30
0.0
 11
26278.94462235477
 21
2050.574394792522
 31
0.0
  0
LINE
  5
CD
102
{ACAD_REACTORS
330
C9
330
CA
102
}
330
2
100
AcDbEntity
  8
A-MassElement-G
  6
Continuous
 62
   210
370
     5
100
AcDbLine
 10
26278.94462235477
 20
2050.574394792522
 30
0.0
 11
26278.94462235477
 21
2089.574394792522
 31
0.0
  0
LINE
  5
CE
102
{ACAD_REACTORS
330
C9
330
CA
102
}
330
2
100
AcDbEntity
  8
A-MassElement-G
  6
Continuous
 62
   210
370
     5
100
AcDbLine
 10
26278.94462235477
 20
2089.574394792522
 30
0.0
 11
26317.94462235477
 21
2089.574394792522
 31
0.0
  0
LINE
  5
CF
102
{ACAD_REACTORS
330
CA
102
}
330
2
100
AcDbEntity
  8
A-MassElement-G
  6
Continuous
 62
   210
370
     5
100
AcDbLine
 10
26322.94462235477
 20
2094.574394792522
 30
0.0
 11
26322.94462235477
 21
2045.574394792522
 31
0.0
  0
LINE
  5
D0
102
{ACAD_REACTORS
330
CA
102
}
330
2
100
AcDbEntity
  8
A-MassElement-G
  6
Continuous
 62
   210
370
     5
100
AcDbLine
 10
26322.94462235477
 20
2045.574394792522
 30
0.0
 11
26273.94462235477
 21
2045.574394792522
 31
0.0
  0
LINE
  5
D1
102
{ACAD_REACTORS
330
CA
102
}
330
2
100
AcDbEntity
  8
A-MassElement-G
  6
Continuous
 62
   210
370
     5
100
AcDbLine
 10
26273.94462235477
 20
2045.574394792522
 30
0.0
 11
26273.94462235477
 21
2094.574394792522
 31
0.0
  0
LINE
  5
D2
102
{ACAD_REACTORS
330
CA
102
}
330
2
100
AcDbEntity
  8
A-MassElement-G
  6
Continuous
 62
   210
370
     5
100
AcDbLine
 10
26273.94462235477
 20
2094.574394792522
 30
0.0
 11
26322.94462235477
 21
2094.574394792522
 31
0.0
  0
LINE
  5
D3
330
2
100
AcDbEntity
  8
A-Wall-G
  6
Continuous
 62
     7
370
     5
100
AcDbLine
 10
25908.94462235476
 20
846.574394792522
 30
0.0
 11
25908.94462235476
 21
786.5743947925221
 31
0.0
  0
LINE
  5
D4
330
2
100
AcDbEntity
  8
A-Wall-G
  6
Continuous
 62
     7
370
     5
100
AcDbLine
 10
25908.94462235476
 20
786.5743947925221
 30
0.0
 11
25869.94462235476
 21
786.5743947925221
 31
0.0
  0
LINE
  5
D5
330
2
100
AcDbEntity
  8
A-Wall-G
  6
Continuous
 62
     7
370
     5
100
AcDbLine
 10
25869.94462235476
 20
786.5743947925221
 30
0.0
 11
25869.94462235476
 21
846.574394792522
 31
0.0
  0
LINE
  5
D6
330
2
100
AcDbEntity
  8
A-MassElement-G
  6
Continuous
 62
   210
370
     5
100
AcDbLine
 10
25913.94462235476
 20
846.574394792522
 30
0.0
 11
25913.94462235476
 21
781.5743947925221
 31
0.0
  0
LINE
  5
D7
330
2
100
AcDbEntity
  8
A-MassElement-G
  6
Continuous
 62
   210
370
     5
100
AcDbLine
 10
25913.94462235476
 20
781.5743947925221
 30
0.0
 11
25864.94462235476
 21
781.5743947925221
 31
0.0
  0
LINE
  5
D8
330
2
100
AcDbEntity
  8
A-MassElement-G
  6
Continuous
 62
   210
370
     5
100
AcDbLine
 10
25864.94462235476
 20
781.5743947925221
 30
0.0
 11
25864.94462235476
 21
846.574394792522
 31
0.0
  0
LINE
  5
D9
330
2
100
AcDbEntity
  8
A-Wall-G
  6
Continuous
 62
     7
370
     5
100
AcDbLine
 10
25608.94462235479
 20
786.5743947925221
 30
0.0
 11
25647.94462235479
 21
786.5743947925221
 31
0.0
  0
LINE
  5
DA
330
2
100
AcDbEntity
  8
A-Wall-G
  6
Continuous
 62
     7
370
     5
100
AcDbLine
 10
25647.94462235479
 20
786.5743947925221
 30
0.0
 11
25647.94462235479
 21
846.574394792522
 31
0.0
  0
LINE
  5
DB
330
2
100
AcDbEntity
  8
A-MassElement-G
  6
Continuous
 62
   210
370
     5
100
AcDbLine
 10
25603.94462235479
 20
781.5743947925221
 30
0.0
 11
25652.94462235478
 21
781.5743947925221
 31
0.0
  0
LINE
  5
DC
330
2
100
AcDbEntity
  8
A-MassElement-G
  6
Continuous
 62
   210
370
     5
100
AcDbLine
 10
25652.94462235478
 20
781.5743947925221
 30
0.0
 11
25652.94462235478
 21
846.574394792522
 31
0.0
  0
LINE
  5
DD
330
2
100
AcDbEntity
  8
A-Wall-G
  6
Continuous
 62
     7
370
     5
100
AcDbLine
 10
25708.94464775478
 20
906.574394792522
 30
0.0
 11
25708.94464775478
 21
846.574394792522
 31
0.0
  0
LINE
  5
DE
330
2
100
AcDbEntity
  8
A-Wall-G
  6
Continuous
 62
     7
370
     5
100
AcDbLine
 10
25808.94464775477
 20
846.574394792522
 30
0.0
 11
25808.94464775477
 21
906.574394792522
 31
0.0
  0
LINE
  5
DF
330
2
100
AcDbEntity
  8
A-Wall-G
  6
Continuous
 62
     7
370
     5
100
AcDbLine
 10
25012.44464775477
 20
586.5743947929258
 30
0.0
 11
25012.44464775477
 21
526.5743947929259
 31
0.0
  0
LINE
  5
E0
330
2
100
AcDbEntity
  8
A-Wall-G
  6
Continuous
 62
     7
370
     5
100
AcDbLine
 10
25300.44462235477
 20
586.5743947929258
 30
0.0
 11
25300.44462235477
 21
526.5743947929259
 31
0.0
  0
LINE
  5
E1
330
2
100
AcDbEntity
  8
A-Wall-G
  6
Continuous
 62
     7
370
     5
100
AcDbLine
 10
25262.44464775478
 20
526.5743947929259
 30
0.0
 11
25262.44464775478
 21
586.5743947929258
 31
0.0
  0
LINE
  5
E2
330
2
100
AcDbEntity
  8
A-Wall-G
  6
Continuous
 62
     7
370
     5
100
AcDbLine
 10
25550.44462235477
 20
526.5743947929259
 30
0.0
 11
25550.44462235477
 21
586.5743947929258
 31
0.0
  0
LINE
  5
E3
330
2
100
AcDbEntity
  8
teren$0$A-MassElement-G
  6
Continuous
 62
   210
370
     5
100
AcDbLine
 10
26714.89067369775
 20
1760.574394792544
 30
0.0
 11
26684.89067369775
 21
1760.574394792544
 31
0.0
  0
LINE
  5
E4
330
2
100
AcDbEntity
  8
teren$0$A-MassElement-G
  6
Continuous
 62
   210
370
     5
100
AcDbLine
 10
25938.94462235476
 20
775.5743947929277
 30
0.0
 11
25978.94462235476
 21
775.5743947929277
 31
0.0
  0
LINE
  5
E5
330
2
100
AcDbEntity
  8
A-Wall-G
  6
Continuous
 62
     7
370
     5
100
AcDbLine
 10
26251.3164625466
 20
1730.574394792522
 30
0.0
 11
26251.3164625466
 21
1790.574394792522
 31
0.0
  0
LINE
  5
E6
330
2
100
AcDbEntity
  8
A-Wall-G
  6
Continuous
 62
     7
370
     5
100
AcDbLine
 10
26141.3164625466
 20
1790.574394792522
 30
0.0
 11
26141.3164625466
 21
1730.574394792522
 31
0.0
  0
LINE
  5
E7
330
2
100
AcDbEntity
  8
A-Wall-G
  6
Continuous
 62
     7
370
     5
100
AcDbLine
 10
25125.84302678359
 20
1393.729954590241
 30
0.0
 11
25125.84302678359
 21
1453.72995459024
 31
0.0
  0
LINE
  5
E8
330
2
100
AcDbEntity
  8
A-Wall-G
  6
Continuous
 62
     7
370
     5
100
AcDbLine
 10
25025.84302678359
 20
1453.729954590241
 30
0.0
 11
25025.84302678359
 21
1393.729954590241
 31
0.0
  0
LINE
  5
E9
330
2
100
AcDbEntity
  8
0Wymiary-PL
 62
     1
370
     5
100
AcDbLine
 10
27506.68785201534
 20
556.5743947929253
 30
0.0
 11
27506.68785201534
 21
2066.574394792522
 31
0.0
  0
LINE
  5
ED
330
2
100
AcDbEntity
  8
0Wymiary-PL
 62
     1
370
     5
100
AcDbLine
 10
27312.51727241501
 20
876.5743947925217
 30
0.0
 11
27312.51727241501
 21
2066.574394792522
 31
0.0
  0
LINE
  5
EE
330
2
100
AcDbEntity
  8
0Wymiary-PL
 62
     1
370
     5
100
AcDbLine
 10
27312.51727241501
 20
556.5743947929254
 30
0.0
 11
27312.51727241501
 21
816.5743947925216
 31
0.0
  0
LINE
  5
EF
330
2
100
AcDbEntity
  8
0Wymiary-PL
 62
     1
370
     5
100
AcDbLine
 10
26294.94462235477
 20
3.066354011056773
 30
0.0
 11
26264.94462235477
 21
3.066354011056773
 31
0.0
  0
LINE
  5
F0
330
2
100
AcDbEntity
  8
0Wymiary-PL
 62
     1
370
     5
100
AcDbLine
 10
26494.94462235477
 20
3.066354011056773
 30
0.0
 11
26524.94462235477
 21
3.066354011056773
 31
0.0
  0
LINE
  5
F1
330
2
100
AcDbEntity
  8
0Wymiary-PL
 62
     1
370
     5
100
AcDbLine
 10
26324.94462235477
 20
3.066354011056773
 30
0.0
 11
26464.94462235477
 21
3.066354011056773
 31
0.0
  0
LINE
  5
F2
330
2
100
AcDbEntity
  8
0Wymiary-PL
 62
     1
370
     5
100
AcDbLine
 10
25652.94462235477
 20
3.066354011055409
 30
0.0
 11
26294.94462235477
 21
3.066354011055409
 31
0.0
  0
LINE
  5
F3
330
2
100
AcDbEntity
  8
0Wymiary-PL
 62
     1
370
     5
100
AcDbLine
 10
24969.94459695478
 20
3.066354011054954
 30
0.0
 11
25592.94462235477
 21
3.066354011054954
 31
0.0
  0
LINE
  5
F4
330
2
100
AcDbEntity
  8
0Wymiary-PL
 62
     1
370
     5
100
AcDbLine
 10
24969.94459695478
 20
2843.49203107152
 30
0.0
 11
26434.94462235477
 21
2843.49203107152
 31
0.0
  0
LINE
  5
F5
330
2
100
AcDbEntity
  8
0Wymiary-PL
 62
     1
370
     5
100
AcDbLine
 10
26294.94462235477
 20
2610.111326273357
 30
0.0
 11
26264.94462235477
 21
2610.111326273357
 31
0.0
  0
LINE
  5
F6
330
2
100
AcDbEntity
  8
0Wymiary-PL
 62
     1
370
     5
100
AcDbLine
 10
26494.94462235477
 20
2610.111326273357
 30
0.0
 11
26524.94462235477
 21
2610.111326273357
 31
0.0
  0
LINE
  5
F7
330
2
100
AcDbEntity
  8
0Wymiary-PL
 62
     1
370
     5
100
AcDbLine
 10
26324.94462235477
 20
2610.111326273357
 30
0.0
 11
26464.94462235477
 21
2610.111326273357
 31
0.0
  0
LINE
  5
F8
330
2
100
AcDbEntity
  8
0Wymiary-PL
 62
     1
370
     5
100
AcDbLine
 10
25234.94462235477
 20
2610.111326273357
 30
0.0
 11
26294.94462235477
 21
2610.111326273357
 31
0.0
  0
LINE
  5
F9
330
2
100
AcDbEntity
  8
0Wymiary-PL
 62
     1
370
     5
100
AcDbLine
 10
24969.94459695478
 20
2610.111326273357
 30
0.0
 11
25174.94462235477
 21
2610.111326273357
 31
0.0
  0
LINE
  5
FA
330
2
100
AcDbEntity
  8
0Wymiary-PL
 62
     1
370
     5
100
AcDbLine
 10
24611.38779614379
 20
1483.729954590241
 30
0.0
 11
24611.38779614379
 21
2066.574394792522
 31
0.0
  0
LINE
  5
FB
330
2
100
AcDbEntity
  8
0Wymiary-PL
 62
     1
370
     5
100
AcDbLine
 10
24611.3877961438
 20
556.5743947929259
 30
0.0
 11
24611.3877961438
 21
1423.729954590241
 31
0.0
  0
LINE
  5
FC
330
2
100
AcDbEntity
  8
0Wymiary-PL
 62
     1
370
     5
100
AcDbLine
 10
21873.79493963148
 20
3.066354011049952
 30
0.0
 11
22496.79496503148
 21
3.066354011049952
 31
0.0
  0
LINE
  5
FD
330
2
100
AcDbEntity
  8
0Wymiary-PL
 62
     1
370
     5
100
AcDbLine
 10
21171.79493963148
 20
3.066354011044495
 30
0.0
 11
21813.79493963148
 21
3.066354011044495
 31
0.0
  0
LINE
  5
FE
330
2
100
AcDbEntity
  8
0Wymiary-PL
 62
     1
370
     5
100
AcDbLine
 10
20971.79493963148
 20
3.066354011049952
 30
0.0
 11
20941.79493963148
 21
3.066354011049952
 31
0.0
  0
LINE
  5
FF
330
2
100
AcDbEntity
  8
0Wymiary-PL
 62
     1
370
     5
100
AcDbLine
 10
21171.79493963148
 20
3.066354011049952
 30
0.0
 11
21201.79493963148
 21
3.066354011049952
 31
0.0
  0
LINE
  5
100
330
2
100
AcDbEntity
  8
0Wymiary-PL
 62
     1
370
     5
100
AcDbLine
 10
21001.79493963148
 20
3.066354011049952
 30
0.0
 11
21141.79493963148
 21
3.066354011049952
 31
0.0
  0
LINE
  5
101
330
2
100
AcDbEntity
  8
0Wymiary-PL
 62
     1
370
     5
100
AcDbLine
 10
22816.95235817539
 20
1423.729954590241
 30
0.0
 11
22816.95235817539
 21
556.5743947929258
 31
0.0
  0
LINE
  5
102
330
2
100
AcDbEntity
  8
0Wymiary-PL
 62
     1
370
     5
100
AcDbLine
 10
22816.95235817539
 20
2066.574394792522
 30
0.0
 11
22816.95235817539
 21
1483.729954590241
 31
0.0
  0
LINE
  5
103
330
2
100
AcDbEntity
  8
0Wymiary-PL
 62
     1
370
     5
100
AcDbLine
 10
20205.13884084574
 20
2066.574394792522
 30
0.0
 11
20205.13884084574
 21
556.5743947929264
 31
0.0
  0
LINE
  5
104
330
2
100
AcDbEntity
  8
0Wymiary-PL
 62
     1
370
     5
100
AcDbLine
 10
20453.06749669528
 20
816.5743947925221
 30
0.0
 11
20453.06749669528
 21
556.5743947929263
 31
0.0
  0
LINE
  5
105
330
2
100
AcDbEntity
  8
0Wymiary-PL
 62
     1
370
     5
100
AcDbLine
 10
20453.06749669528
 20
2066.574394792522
 30
0.0
 11
20453.06749669528
 21
876.5743947925221
 31
0.0
  0
LINE
  5
106
330
2
100
AcDbEntity
  8
0Wymiary-PL
 62
     1
 48
4.0
370
     5
100
AcDbLine
 10
22496.79493963148
 20
2825.09833461844
 30
0.0
 11
21031.79493963148
 21
2825.09833461844
 31
0.0
  0
LINE
  5
107
330
2
100
AcDbEntity
  8
0Wymiary-PL
 62
     1
 48
4.0
370
     5
100
AcDbLine
 10
21171.79493963148
 20
2610.111326273347
 30
0.0
 11
21201.79493963148
 21
2610.111326273347
 31
0.0
  0
LINE
  5
108
330
2
100
AcDbEntity
  8
0Wymiary-PL
 62
     1
 48
4.0
370
     5
100
AcDbLine
 10
20971.79493963148
 20
2610.111326273347
 30
0.0
 11
20941.79493963148
 21
2610.111326273347
 31
0.0
  0
LINE
  5
109
330
2
100
AcDbEntity
  8
0Wymiary-PL
 62
     1
 48
4.0
370
     5
100
AcDbLine
 10
21141.79493963148
 20
2610.111326273347
 30
0.0
 11
21001.79493963148
 21
2610.111326273347
 31
0.0
  0
LINE
  5
10A
330
2
100
AcDbEntity
  8
0Wymiary-PL
 62
     1
 48
4.0
370
     5
100
AcDbLine
 10
22291.79493963148
 20
2610.111326273357
 30
0.0
 11
22496.79493963148
 21
2610.111326273357
 31
0.0
  0
LINE
  5
10B
330
2
100
AcDbEntity
  8
0Wymiary-PL
 62
     1
370
     5
100
AcDbLine
 10
22231.79493963148
 20
2610.111326273352
 30
0.0
 11
21171.79493963148
 21
2610.111326273352
 31
0.0
  0
LINE
  5
10C
330
2
100
AcDbEntity
  8
0Wymiary-PL
 48
4.0
370
     5
100
AcDbLine
 10
25264.94462235477
 20
2036.574394792522
 30
0.0
 11
26055.94462235477
 21
2036.574394792522
 31
0.0
  0
LINE
  5
10D
330
2
100
AcDbEntity
  8
0Wymiary-PL
 48
4.0
370
     5
100
AcDbLine
 10
26055.94462235477
 20
2036.574394792522
 30
0.0
 11
26055.94462235477
 21
1730.574394792522
 31
0.0
  0
LINE
  5
10E
330
2
100
AcDbEntity
  8
0Wymiary-PL
 48
4.0
370
     5
100
AcDbLine
 10
26055.94462235477
 20
1730.574394792522
 30
0.0
 11
26264.94462235477
 21
1730.574394792522
 31
0.0
  0
LINE
  5
10F
330
2
100
AcDbEntity
  8
0Wymiary-PL
 48
4.0
370
     5
100
AcDbLine
 10
26264.94462235477
 20
1730.574394792522
 30
0.0
 11
26264.94462235477
 21
1650.574394792522
 31
0.0
  0
LINE
  5
110
330
2
100
AcDbEntity
  8
0Wymiary-PL
 48
4.0
370
     5
100
AcDbLine
 10
26264.94462235477
 20
1650.574394792522
 30
0.0
 11
26336.69460091119
 21
1650.574394792522
 31
0.0
  0
LINE
  5
111
330
2
100
AcDbEntity
  8
0Wymiary-PL
 48
4.0
370
     5
100
AcDbLine
 10
26336.69460091119
 20
1650.574394792522
 30
0.0
 11
26404.94462235477
 21
1582.32437334894
 31
0.0
  0
LINE
  5
112
330
2
100
AcDbEntity
  8
0Wymiary-PL
 48
4.0
370
     5
100
AcDbLine
 10
26404.94462235477
 20
1582.32437334894
 30
0.0
 11
26404.94462235477
 21
1360.824416236102
 31
0.0
  0
LINE
  5
113
330
2
100
AcDbEntity
  8
0Wymiary-PL
 48
4.0
370
     5
100
AcDbLine
 10
26404.94462235477
 20
1360.824416236102
 30
0.0
 11
26336.69460091119
 21
1292.574394792517
 31
0.0
  0
LINE
  5
114
330
2
100
AcDbEntity
  8
0Wymiary-PL
 48
4.0
370
     5
100
AcDbLine
 10
26336.69460091119
 20
1292.574394792517
 30
0.0
 11
26264.94462235477
 21
1292.574394792546
 31
0.0
  0
LINE
  5
115
330
2
100
AcDbEntity
  8
0Wymiary-PL
 48
4.0
370
     5
100
AcDbLine
 10
26264.94462235477
 20
1292.574394792546
 30
0.0
 11
26264.94462235477
 21
906.574394792522
 31
0.0
  0
LINE
  5
116
330
2
100
AcDbEntity
  8
0Wymiary-PL
 48
4.0
370
     5
100
AcDbLine
 10
26264.94462235477
 20
906.574394792522
 30
0.0
 11
25562.94462235477
 21
906.574394792522
 31
0.0
  0
LINE
  5
117
330
2
100
AcDbEntity
  8
0Wymiary-PL
 48
4.0
370
     5
100
AcDbLine
 10
25562.94462235477
 20
906.574394792522
 30
0.0
 11
25562.94462235477
 21
586.5743947929258
 31
0.0
  0
LINE
  5
118
330
2
100
AcDbEntity
  8
0Wymiary-PL
 48
4.0
370
     5
100
AcDbLine
 10
25562.94462235477
 20
586.5743947929258
 30
0.0
 11
24999.94462235477
 21
586.5743947929258
 31
0.0
  0
LINE
  5
119
330
2
100
AcDbEntity
  8
0Wymiary-PL
 48
4.0
370
     5
100
AcDbLine
 10
24999.94462235477
 20
586.5743947929258
 30
0.0
 11
24999.94462235477
 21
1393.729954590241
 31
0.0
  0
LINE
  5
11A
330
2
100
AcDbEntity
  8
0Wymiary-PL
 48
4.0
370
     5
100
AcDbLine
 10
24999.94462235477
 20
1393.729954590241
 30
0.0
 11
25264.94462235477
 21
1393.729954590241
 31
0.0
  0
LINE
  5
11B
330
2
100
AcDbEntity
  8
0Wymiary-PL
 48
4.0
370
     5
100
AcDbLine
 10
25264.94462235477
 20
1393.729954590241
 30
0.0
 11
25264.94462235477
 21
2036.574394792522
 31
0.0
  0
LINE
  5
11C
330
2
100
AcDbEntity
  8
0Wymiary-PL
 48
4.0
370
     5
100
AcDbLine
 10
25204.94462235477
 20
2096.574394792522
 30
0.0
 11
26115.94462235477
 21
2096.574394792522
 31
0.0
  0
LINE
  5
11D
330
2
100
AcDbEntity
  8
0Wymiary-PL
 48
4.0
370
     5
100
AcDbLine
 10
26115.94462235477
 20
2096.574394792522
 30
0.0
 11
26115.94462235477
 21
1790.574394792522
 31
0.0
  0
LINE
  5
11E
330
2
100
AcDbEntity
  8
0Wymiary-PL
 48
4.0
370
     5
100
AcDbLine
 10
26115.94462235477
 20
1790.574394792522
 30
0.0
 11
26324.94462235477
 21
1790.574394792522
 31
0.0
  0
LINE
  5
11F
330
2
100
AcDbEntity
  8
0Wymiary-PL
 48
4.0
370
     5
100
AcDbLine
 10
26324.94462235477
 20
1790.574394792522
 30
0.0
 11
26324.94462235477
 21
1710.574394792522
 31
0.0
  0
LINE
  5
120
330
2
100
AcDbEntity
  8
0Wymiary-PL
 48
4.0
370
     5
100
AcDbLine
 10
26324.94462235477
 20
1710.574394792522
 30
0.0
 11
26361.54741465358
 21
1710.574394792522
 31
0.0
  0
LINE
  5
121
330
2
100
AcDbEntity
  8
0Wymiary-PL
 48
4.0
370
     5
100
AcDbLine
 10
26361.54741465358
 20
1710.574394792522
 30
0.0
 11
26464.94462235477
 21
1607.177187091325
 31
0.0
  0
LINE
  5
122
330
2
100
AcDbEntity
  8
0Wymiary-PL
 48
4.0
370
     5
100
AcDbLine
 10
26464.94462235477
 20
1607.177187091325
 30
0.0
 11
26464.94462235477
 21
1335.971602493717
 31
0.0
  0
LINE
  5
123
330
2
100
AcDbEntity
  8
0Wymiary-PL
 48
4.0
370
     5
100
AcDbLine
 10
26464.94462235477
 20
1335.971602493717
 30
0.0
 11
26361.54741465356
 21
1232.574394792507
 31
0.0
  0
LINE
  5
124
330
2
100
AcDbEntity
  8
0Wymiary-PL
 48
4.0
370
     5
100
AcDbLine
 10
26361.54741465356
 20
1232.574394792507
 30
0.0
 11
26324.94462235477
 21
1232.574394792522
 31
0.0
  0
LINE
  5
125
330
2
100
AcDbEntity
  8
0Wymiary-PL
 48
4.0
370
     5
100
AcDbLine
 10
26324.94462235477
 20
1232.574394792522
 30
0.0
 11
26324.94462235477
 21
846.574394792522
 31
0.0
  0
LINE
  5
126
330
2
100
AcDbEntity
  8
0Wymiary-PL
 48
4.0
370
     5
100
AcDbLine
 10
26324.94462235477
 20
846.574394792522
 30
0.0
 11
25622.94462235477
 21
846.574394792522
 31
0.0
  0
LINE
  5
127
330
2
100
AcDbEntity
  8
0Wymiary-PL
 48
4.0
370
     5
100
AcDbLine
 10
25622.94462235477
 20
846.574394792522
 30
0.0
 11
25622.94462235477
 21
526.5743947929259
 31
0.0
  0
LINE
  5
128
330
2
100
AcDbEntity
  8
0Wymiary-PL
 48
4.0
370
     5
100
AcDbLine
 10
25622.94462235477
 20
526.5743947929259
 30
0.0
 11
24939.94462235477
 21
526.5743947929259
 31
0.0
  0
LINE
  5
129
330
2
100
AcDbEntity
  8
0Wymiary-PL
 48
4.0
370
     5
100
AcDbLine
 10
24939.94462235477
 20
526.5743947929259
 30
0.0
 11
24939.94462235477
 21
1453.729954590241
 31
0.0
  0
LINE
  5
12A
330
2
100
AcDbEntity
  8
0Wymiary-PL
 48
4.0
370
     5
100
AcDbLine
 10
24939.94462235477
 20
1453.729954590241
 30
0.0
 11
25204.94462235477
 21
1453.729954590241
 31
0.0
  0
LINE
  5
12B
330
2
100
AcDbEntity
  8
0Wymiary-PL
 48
4.0
370
     5
100
AcDbLine
 10
25204.94462235477
 20
1453.729954590241
 30
0.0
 11
25204.94462235477
 21
2096.574394792522
 31
0.0
  0
LINE
  5
12C
330
2
100
AcDbEntity
  8
0Wymiary-PL
 48
4.0
370
     5
100
AcDbLine
 10
22201.79493963148
 20
2036.574394792522
 30
0.0
 11
21410.79493963148
 21
2036.574394792522
 31
0.0
  0
LINE
  5
12D
330
2
100
AcDbEntity
  8
0Wymiary-PL
 48
4.0
370
     5
100
AcDbLine
 10
21410.79493963148
 20
2036.574394792522
 30
0.0
 11
21410.79493963148
 21
1730.574394792522
 31
0.0
  0
LINE
  5
12E
330
2
100
AcDbEntity
  8
0Wymiary-PL
 48
4.0
370
     5
100
AcDbLine
 10
21410.79493963148
 20
1730.574394792522
 30
0.0
 11
21201.79493963148
 21
1730.574394792522
 31
0.0
  0
LINE
  5
12F
330
2
100
AcDbEntity
  8
0Wymiary-PL
 48
4.0
370
     5
100
AcDbLine
 10
21201.79493963148
 20
1730.574394792522
 30
0.0
 11
21201.79493963148
 21
1650.574394792522
 31
0.0
  0
LINE
  5
130
330
2
100
AcDbEntity
  8
0Wymiary-PL
 48
4.0
370
     5
100
AcDbLine
 10
21201.79493963148
 20
1650.574394792522
 30
0.0
 11
21130.04496107506
 21
1650.574394792522
 31
0.0
  0
LINE
  5
131
330
2
100
AcDbEntity
  8
0Wymiary-PL
 48
4.0
370
     5
100
AcDbLine
 10
21130.04496107506
 20
1650.574394792522
 30
0.0
 11
21061.79493963148
 21
1582.32437334894
 31
0.0
  0
LINE
  5
132
330
2
100
AcDbEntity
  8
0Wymiary-PL
 48
4.0
370
     5
100
AcDbLine
 10
21061.79493963148
 20
1582.32437334894
 30
0.0
 11
21061.79493963148
 21
1360.824416236102
 31
0.0
  0
LINE
  5
133
330
2
100
AcDbEntity
  8
0Wymiary-PL
 48
4.0
370
     5
100
AcDbLine
 10
21061.79493963148
 20
1360.824416236102
 30
0.0
 11
21130.04496107507
 21
1292.574394792517
 31
0.0
  0
LINE
  5
134
330
2
100
AcDbEntity
  8
0Wymiary-PL
 48
4.0
370
     5
100
AcDbLine
 10
21130.04496107507
 20
1292.574394792517
 30
0.0
 11
21201.79493963148
 21
1292.574394792546
 31
0.0
  0
LINE
  5
135
330
2
100
AcDbEntity
  8
0Wymiary-PL
 48
4.0
370
     5
100
AcDbLine
 10
21201.79493963148
 20
1292.574394792546
 30
0.0
 11
21201.79493963148
 21
906.574394792522
 31
0.0
  0
LINE
  5
136
330
2
100
AcDbEntity
  8
0Wymiary-PL
 48
4.0
370
     5
100
AcDbLine
 10
21201.79493963148
 20
906.574394792522
 30
0.0
 11
21903.79493963148
 21
906.574394792522
 31
0.0
  0
LINE
  5
137
330
2
100
AcDbEntity
  8
0Wymiary-PL
 48
4.0
370
     5
100
AcDbLine
 10
21903.79493963148
 20
906.574394792522
 30
0.0
 11
21903.79493963148
 21
586.5743947929258
 31
0.0
  0
LINE
  5
138
330
2
100
AcDbEntity
  8
0Wymiary-PL
 48
4.0
370
     5
100
AcDbLine
 10
21903.79493963148
 20
586.5743947929258
 30
0.0
 11
22466.79493963148
 21
586.5743947929258
 31
0.0
  0
LINE
  5
139
330
2
100
AcDbEntity
  8
0Wymiary-PL
 48
4.0
370
     5
100
AcDbLine
 10
22466.79493963148
 20
586.5743947929258
 30
0.0
 11
22466.79493963148
 21
1393.729954590241
 31
0.0
  0
LINE
  5
13A
330
2
100
AcDbEntity
  8
0Wymiary-PL
 48
4.0
370
     5
100
AcDbLine
 10
22466.79493963148
 20
1393.729954590241
 30
0.0
 11
22201.79493963148
 21
1393.729954590241
 31
0.0
  0
LINE
  5
13B
330
2
100
AcDbEntity
  8
0Wymiary-PL
 48
4.0
370
     5
100
AcDbLine
 10
22201.79493963148
 20
1393.729954590241
 30
0.0
 11
22201.79493963148
 21
2036.574394792522
 31
0.0
  0
LINE
  5
13C
330
2
100
AcDbEntity
  8
0Wymiary-PL
 48
4.0
370
     5
100
AcDbLine
 10
22261.79493963148
 20
2096.574394792522
 30
0.0
 11
21350.79493963148
 21
2096.574394792522
 31
0.0
  0
LINE
  5
13D
330
2
100
AcDbEntity
  8
0Wymiary-PL
 48
4.0
370
     5
100
AcDbLine
 10
21350.79493963148
 20
2096.574394792522
 30
0.0
 11
21350.79493963148
 21
1790.574394792522
 31
0.0
  0
LINE
  5
13E
330
2
100
AcDbEntity
  8
0Wymiary-PL
 48
4.0
370
     5
100
AcDbLine
 10
21350.79493963148
 20
1790.574394792522
 30
0.0
 11
21141.79493963148
 21
1790.574394792522
 31
0.0
  0
LINE
  5
13F
330
2
100
AcDbEntity
  8
0Wymiary-PL
 48
4.0
370
     5
100
AcDbLine
 10
21141.79493963148
 20
1790.574394792522
 30
0.0
 11
21141.79493963148
 21
1710.574394792522
 31
0.0
  0
LINE
  5
140
330
2
100
AcDbEntity
  8
0Wymiary-PL
 48
4.0
370
     5
100
AcDbLine
 10
21141.79493963148
 20
1710.574394792522
 30
0.0
 11
21105.19214733267
 21
1710.574394792522
 31
0.0
  0
LINE
  5
141
330
2
100
AcDbEntity
  8
0Wymiary-PL
 48
4.0
370
     5
100
AcDbLine
 10
21105.19214733267
 20
1710.574394792522
 30
0.0
 11
21001.79493963148
 21
1607.177187091325
 31
0.0
  0
LINE
  5
142
330
2
100
AcDbEntity
  8
0Wymiary-PL
 48
4.0
370
     5
100
AcDbLine
 10
21001.79493963148
 20
1607.177187091325
 30
0.0
 11
21001.79493963148
 21
1335.971602493717
 31
0.0
  0
LINE
  5
143
330
2
100
AcDbEntity
  8
0Wymiary-PL
 48
4.0
370
     5
100
AcDbLine
 10
21001.79493963148
 20
1335.971602493717
 30
0.0
 11
21105.19214733269
 21
1232.574394792507
 31
0.0
  0
LINE
  5
144
330
2
100
AcDbEntity
  8
0Wymiary-PL
 48
4.0
370
     5
100
AcDbLine
 10
21105.19214733269
 20
1232.574394792507
 30
0.0
 11
21141.79493963148
 21
1232.574394792522
 31
0.0
  0
LINE
  5
145
330
2
100
AcDbEntity
  8
0Wymiary-PL
 48
4.0
370
     5
100
AcDbLine
 10
21141.79493963148
 20
1232.574394792522
 30
0.0
 11
21141.79493963148
 21
846.574394792522
 31
0.0
  0
LINE
  5
146
330
2
100
AcDbEntity
  8
0Wymiary-PL
 48
4.0
370
     5
100
AcDbLine
 10
21141.79493963148
 20
846.574394792522
 30
0.0
 11
21843.79493963148
 21
846.574394792522
 31
0.0
  0
LINE
  5
147
330
2
100
AcDbEntity
  8
0Wymiary-PL
 48
4.0
370
     5
100
AcDbLine
 10
21843.79493963148
 20
846.574394792522
 30
0.0
 11
21843.79493963148
 21
526.5743947929259
 31
0.0
  0
LINE
  5
148
330
2
100
AcDbEntity
  8
0Wymiary-PL
 48
4.0
370
     5
100
AcDbLine
 10
21843.79493963148
 20
526.5743947929259
 30
0.0
 11
22526.79493963148
 21
526.5743947929259
 31
0.0
  0
LINE
  5
149
330
2
100
AcDbEntity
  8
0Wymiary-PL
 48
4.0
370
     5
100
AcDbLine
 10
22526.79493963148
 20
526.5743947929259
 30
0.0
 11
22526.79493963148
 21
1453.729954590241
 31
0.0
  0
LINE
  5
14A
330
2
100
AcDbEntity
  8
0Wymiary-PL
 48
4.0
370
     5
100
AcDbLine
 10
22526.79493963148
 20
1453.729954590241
 30
0.0
 11
22261.79493963148
 21
1453.729954590241
 31
0.0
  0
LINE
  5
14B
330
2
100
AcDbEntity
  8
0Wymiary-PL
 48
4.0
370
     5
100
AcDbLine
 10
22261.79493963148
 20
1453.729954590241
 30
0.0
 11
22261.79493963148
 21
2096.574394792522
 31
0.0
  0
TEXT
  5
14C
330
2
100
AcDbEntity
  8
0Wymiary-PL
 62
   140
100
AcDbText
 10
27466.68785201534
 20
1169.288680507013
 30
0.0
 40
80.0
  1
1570
 50
90.0
 41
0.9
  7
ROMANS
100
AcDbText
  0
LINE
  5
14E
330
2
100
AcDbEntity
  8
0
 62
     1
100
AcDbLine
 10
27539.68785201534
 20
2096.574394792525
 30
0.0
 11
27473.68785201534
 21
2096.574394792525
 31
0.0
  0
LINE
  5
14F
330
2
100
AcDbEntity
  8
0
 62
     1
100
AcDbLine
 10
27506.68785201534
 20
2132.574394792525
 30
0.0
 11
27506.68785201534
 21
2060.574394792525
 31
0.0
  0
LINE
  5
150
330
2
100
AcDbEntity
  8
0
 62
     1
100
AcDbLine
 10
27473.68785201534
 20
526.5743947929226
 30
0.0
 11
27539.68785201534
 21
526.5743947929226
 31
0.0
  0
LINE
  5
151
330
2
100
AcDbEntity
  8
0
 62
     1
100
AcDbLine
 10
27506.68785201534
 20
490.5743947929225
 30
0.0
 11
27506.68785201534
 21
562.5743947929225
 31
0.0
  0
TEXT
  5
152
330
2
100
AcDbEntity
  8
0Wymiary-PL
 62
   140
100
AcDbText
 10
27272.51727241501
 20
1329.288680506812
 30
0.0
 40
80.0
  1
1250
 50
90.0
 41
0.9
  7
ROMANS
100
AcDbText
  0
LINE
  5
153
330
2
100
AcDbEntity
  8
0
 62
     1
100
AcDbLine
 10
27345.517272415
 20
2096.574394792525
 30
0.0
 11
27279.517272415
 21
2096.574394792525
 31
0.0
  0
LINE
  5
154
330
2
100
AcDbEntity
  8
0
 62
     1
100
AcDbLine
 10
27312.51727241501
 20
2132.574394792525
 30
0.0
 11
27312.51727241501
 21
2060.574394792525
 31
0.0
  0
LINE
  5
155
330
2
100
AcDbEntity
  8
0
 62
     1
100
AcDbLine
 10
27279.517272415
 20
846.574394792519
 30
0.0
 11
27345.517272415
 21
846.574394792519
 31
0.0
  0
LINE
  5
156
330
2
100
AcDbEntity
  8
0
 62
     1
100
AcDbLine
 10
27312.51727241501
 20
810.5743947925189
 30
0.0
 11
27312.51727241501
 21
882.574394792519
 31
0.0
  0
TEXT
  5
157
330
2
100
AcDbEntity
  8
0Wymiary-PL
 62
   140
100
AcDbText
 10
27272.51727241501
 20
583.7172519355849
 30
0.0
 40
80.0
  1
320
 50
90.0
 41
0.9
  7
ROMANS
100
AcDbText
  0
LINE
  5
158
330
2
100
AcDbEntity
  8
0
 62
     1
100
AcDbLine
 10
27345.517272415
 20
846.5743947925243
 30
0.0
 11
27279.517272415
 21
846.5743947925243
 31
0.0
  0
LINE
  5
159
330
2
100
AcDbEntity
  8
0
 62
     1
100
AcDbLine
 10
27312.51727241501
 20
882.5743947925243
 30
0.0
 11
27312.51727241501
 21
810.5743947925244
 31
0.0
  0
LINE
  5
15A
330
2
100
AcDbEntity
  8
0
 62
     1
100
AcDbLine
 10
27279.517272415
 20
526.5743947929227
 30
0.0
 11
27345.517272415
 21
526.5743947929227
 31
0.0
  0
LINE
  5
15B
330
2
100
AcDbEntity
  8
0
 62
     1
100
AcDbLine
 10
27312.51727241501
 20
490.5743947929226
 30
0.0
 11
27312.51727241501
 21
562.5743947929227
 31
0.0
  0
TEXT
  5
15C
330
2
100
AcDbEntity
  8
0Wymiary-PL
 62
   140
100
AcDbText
 10
26286.94462235477
 20
43.06635401105677
 30
0.0
 40
80.0
  1
140
 41
0.9
  7
ROMANS
100
AcDbText
  0
LINE
  5
15D
330
2
100
AcDbEntity
  8
0
 62
     1
100
AcDbLine
 10
26464.94462235477
 20
36.06635401105677
 30
0.0
 11
26464.94462235477
 21
-29.93364598894323
 31
0.0
  0
LINE
  5
15E
330
2
100
AcDbEntity
  8
0
 62
     1
100
AcDbLine
 10
26428.94462235477
 20
3.066354011056778
 30
0.0
 11
26500.94462235477
 21
3.066354011056769
 31
0.0
  0
LINE
  5
15F
330
2
100
AcDbEntity
  8
0
 62
     1
100
AcDbLine
 10
26324.94462235478
 20
-29.93364598894323
 30
0.0
 11
26324.94462235478
 21
36.06635401105677
 31
0.0
  0
LINE
  5
160
330
2
100
AcDbEntity
  8
0
 62
     1
100
AcDbLine
 10
26360.94462235477
 20
3.066354011056773
 30
0.0
 11
26288.94462235478
 21
3.066354011056773
 31
0.0
  0
TEXT
  5
161
330
2
100
AcDbEntity
  8
0Wymiary-PL
 62
   140
100
AcDbText
 10
25871.08747949763
 20
43.0663540110554
 30
0.0
 40
80.0
  1
702
 41
0.9
  7
ROMANS
100
AcDbText
  0
LINE
  5
162
330
2
100
AcDbEntity
  8
0
 62
     1
100
AcDbLine
 10
26324.94462235478
 20
-29.93364598894459
 30
0.0
 11
26324.94462235478
 21
36.06635401105541
 31
0.0
  0
LINE
  5
163
330
2
100
AcDbEntity
  8
0
 62
     1
100
AcDbLine
 10
26360.94462235477
 20
3.066354011055409
 30
0.0
 11
26288.94462235478
 21
3.066354011055409
 31
0.0
  0
LINE
  5
164
330
2
100
AcDbEntity
  8
0
 62
     1
100
AcDbLine
 10
25622.94462235477
 20
36.06635401105541
 30
0.0
 11
25622.94462235477
 21
-29.93364598894459
 31
0.0
  0
LINE
  5
165
330
2
100
AcDbEntity
  8
0
 62
     1
100
AcDbLine
 10
25586.94462235477
 20
3.066354011055413
 30
0.0
 11
25658.94462235477
 21
3.066354011055405
 31
0.0
  0
TEXT
  5
166
330
2
100
AcDbEntity
  8
0Wymiary-PL
 62
   140
100
AcDbText
 10
25176.87318108335
 20
43.06635401105495
 30
0.0
 40
80.0
  1
683
 41
0.9
  7
ROMANS
100
AcDbText
  0
LINE
  5
167
330
2
100
AcDbEntity
  8
0
 62
     1
100
AcDbLine
 10
25622.94462235478
 20
-29.93364598894505
 30
0.0
 11
25622.94462235478
 21
36.06635401105496
 31
0.0
  0
LINE
  5
168
330
2
100
AcDbEntity
  8
0
 62
     1
100
AcDbLine
 10
25658.94462235478
 20
3.066354011054954
 30
0.0
 11
25586.94462235478
 21
3.066354011054954
 31
0.0
  0
LINE
  5
169
330
2
100
AcDbEntity
  8
0
 62
     1
100
AcDbLine
 10
24939.94459695477
 20
36.06635401105496
 30
0.0
 11
24939.94459695477
 21
-29.93364598894505
 31
0.0
  0
LINE
  5
16A
330
2
100
AcDbEntity
  8
0
 62
     1
100
AcDbLine
 10
24903.94459695477
 20
3.066354011054959
 30
0.0
 11
24975.94459695477
 21
3.06635401105495
 31
0.0
  0
TEXT
  5
16B
330
2
100
AcDbEntity
  8
0Wymiary-PL
 62
   140
100
AcDbText
 10
25560.15889536906
 20
2883.49203107152
 30
0.0
 40
80.0
  1
1525
 41
0.9
  7
ROMANS
100
AcDbText
  0
LINE
  5
16C
330
2
100
AcDbEntity
  8
0
 62
     1
100
AcDbLine
 10
26464.94462235478
 20
2810.49203107152
 30
0.0
 11
26464.94462235478
 21
2876.49203107152
 31
0.0
  0
LINE
  5
16D
330
2
100
AcDbEntity
  8
0
 62
     1
100
AcDbLine
 10
26500.94462235478
 20
2843.49203107152
 30
0.0
 11
26428.94462235477
 21
2843.49203107152
 31
0.0
  0
LINE
  5
16E
330
2
100
AcDbEntity
  8
0
 62
     1
100
AcDbLine
 10
24939.94459695477
 20
2876.49203107152
 30
0.0
 11
24939.94459695477
 21
2810.49203107152
 31
0.0
  0
LINE
  5
16F
330
2
100
AcDbEntity
  8
0
 62
     1
100
AcDbLine
 10
24903.94459695477
 20
2843.49203107152
 30
0.0
 11
24975.94459695477
 21
2843.49203107152
 31
0.0
  0
TEXT
  5
170
330
2
100
AcDbEntity
  8
0Wymiary-PL
 62
   140
100
AcDbText
 10
26286.94462235477
 20
2650.111326273357
 30
0.0
 40
80.0
  1
140
 41
0.9
  7
ROMANS
100
AcDbText
  0
LINE
  5
171
330
2
100
AcDbEntity
  8
0
 62
     1
100
AcDbLine
 10
26464.94462235477
 20
2643.111326273357
 30
0.0
 11
26464.94462235477
 21
2577.111326273357
 31
0.0
  0
LINE
  5
172
330
2
100
AcDbEntity
  8
0
 62
     1
100
AcDbLine
 10
26428.94462235477
 20
2610.111326273357
 30
0.0
 11
26500.94462235477
 21
2610.111326273357
 31
0.0
  0
LINE
  5
173
330
2
100
AcDbEntity
  8
0
 62
     1
100
AcDbLine
 10
26324.94462235478
 20
2577.111326273357
 30
0.0
 11
26324.94462235478
 21
2643.111326273357
 31
0.0
  0
LINE
  5
174
330
2
100
AcDbEntity
  8
0
 62
     1
100
AcDbLine
 10
26360.94462235477
 20
2610.111326273357
 30
0.0
 11
26288.94462235478
 21
2610.111326273357
 31
0.0
  0
TEXT
  5
175
330
2
100
AcDbEntity
  8
0Wymiary-PL
 62
   140
100
AcDbText
 10
25622.65890806906
 20
2650.111326273357
 30
0.0
 40
80.0
  1
1120
 41
0.9
  7
ROMANS
100
AcDbText
  0
LINE
  5
176
330
2
100
AcDbEntity
  8
0
 62
     1
100
AcDbLine
 10
26324.94462235478
 20
2577.111326273357
 30
0.0
 11
26324.94462235478
 21
2643.111326273357
 31
0.0
  0
LINE
  5
177
330
2
100
AcDbEntity
  8
0
 62
     1
100
AcDbLine
 10
26360.94462235477
 20
2610.111326273357
 30
0.0
 11
26288.94462235478
 21
2610.111326273357
 31
0.0
  0
LINE
  5
178
330
2
100
AcDbEntity
  8
0
 62
     1
100
AcDbLine
 10
25204.94462235477
 20
2643.111326273357
 30
0.0
 11
25204.94462235477
 21
2577.111326273357
 31
0.0
  0
LINE
  5
179
330
2
100
AcDbEntity
  8
0
 62
     1
100
AcDbLine
 10
25168.94462235477
 20
2610.111326273357
 30
0.0
 11
25240.94462235477
 21
2610.111326273357
 31
0.0
  0
TEXT
  5
17A
330
2
100
AcDbEntity
  8
0Wymiary-PL
 62
   140
100
AcDbText
 10
24969.58746679763
 20
2650.111326273357
 30
0.0
 40
80.0
  1
265
 41
0.9
  7
ROMANS
100
AcDbText
  0
LINE
  5
17B
330
2
100
AcDbEntity
  8
0
 62
     1
100
AcDbLine
 10
25204.94462235478
 20
2577.111326273357
 30
0.0
 11
25204.94462235478
 21
2643.111326273357
 31
0.0
  0
LINE
  5
17C
330
2
100
AcDbEntity
  8
0
 62
     1
100
AcDbLine
 10
25240.94462235478
 20
2610.111326273357
 30
0.0
 11
25168.94462235478
 21
2610.111326273357
 31
0.0
  0
LINE
  5
17D
330
2
100
AcDbEntity
  8
0
 62
     1
100
AcDbLine
 10
24939.94459695477
 20
2643.111326273357
 30
0.0
 11
24939.94459695477
 21
2577.111326273357
 31
0.0
  0
LINE
  5
17E
330
2
100
AcDbEntity
  8
0
 62
     1
100
AcDbLine
 10
24903.94459695477
 20
2610.111326273357
 30
0.0
 11
24975.94459695477
 21
2610.111326273357
 31
0.0
  0
TEXT
  5
17F
330
2
100
AcDbEntity
  8
0Wymiary-PL
 62
   140
100
AcDbText
 10
24571.38779614379
 20
1670.580746119957
 30
0.0
 40
80.0
  1
643
 50
90.0
 41
0.9
  7
ROMANS
100
AcDbText
  0
LINE
  5
180
330
2
100
AcDbEntity
  8
0
 62
     1
100
AcDbLine
 10
24644.3877961438
 20
2096.574394792525
 30
0.0
 11
24578.38779614379
 21
2096.574394792525
 31
0.0
  0
LINE
  5
181
330
2
100
AcDbEntity
  8
0
 62
     1
100
AcDbLine
 10
24611.38779614379
 20
2132.574394792525
 30
0.0
 11
24611.38779614379
 21
2060.574394792525
 31
0.0
  0
LINE
  5
182
330
2
100
AcDbEntity
  8
0
 62
     1
100
AcDbLine
 10
24578.38779614379
 20
1453.729954590239
 30
0.0
 11
24644.3877961438
 21
1453.729954590239
 31
0.0
  0
LINE
  5
183
330
2
100
AcDbEntity
  8
0
 62
     1
100
AcDbLine
 10
24611.38779614379
 20
1417.729954590239
 30
0.0
 11
24611.38779614379
 21
1489.729954590239
 31
0.0
  0
TEXT
  5
184
330
2
100
AcDbEntity
  8
0Wymiary-PL
 62
   140
100
AcDbText
 10
24571.3877961438
 20
887.2950318344448
 30
0.0
 40
80.0
  1
927
 50
90.0
 41
0.9
  7
ROMANS
100
AcDbText
  0
LINE
  5
185
330
2
100
AcDbEntity
  8
0
 62
     1
100
AcDbLine
 10
24644.3877961438
 20
1453.729954590244
 30
0.0
 11
24578.3877961438
 21
1453.729954590244
 31
0.0
  0
LINE
  5
186
330
2
100
AcDbEntity
  8
0
 62
     1
100
AcDbLine
 10
24611.3877961438
 20
1489.729954590244
 30
0.0
 11
24611.3877961438
 21
1417.729954590244
 31
0.0
  0
LINE
  5
187
330
2
100
AcDbEntity
  8
0
 62
     1
100
AcDbLine
 10
24578.3877961438
 20
526.5743947929232
 30
0.0
 11
24644.3877961438
 21
526.5743947929232
 31
0.0
  0
LINE
  5
188
330
2
100
AcDbEntity
  8
0
 62
     1
100
AcDbLine
 10
24611.3877961438
 20
490.5743947929233
 30
0.0
 11
24611.3877961438
 21
562.5743947929232
 31
0.0
  0
TEXT
  5
189
330
2
100
AcDbEntity
  8
0Wymiary-PL
 62
   140
100
AcDbText
 10
22080.72352376005
 20
43.06635401104995
 30
0.0
 40
80.0
  1
683
 41
0.9
  7
ROMANS
100
AcDbText
  0
LINE
  5
18A
330
2
100
AcDbEntity
  8
0
 62
     1
100
AcDbLine
 10
22526.79496503148
 20
-29.93364598895005
 30
0.0
 11
22526.79496503148
 21
36.06635401104995
 31
0.0
  0
LINE
  5
18B
330
2
100
AcDbEntity
  8
0
 62
     1
100
AcDbLine
 10
22562.79496503148
 20
3.066354011049952
 30
0.0
 11
22490.79496503148
 21
3.066354011049952
 31
0.0
  0
LINE
  5
18C
330
2
100
AcDbEntity
  8
0
 62
     1
100
AcDbLine
 10
21843.79493963148
 20
36.06635401104995
 30
0.0
 11
21843.79493963148
 21
-29.93364598895005
 31
0.0
  0
LINE
  5
18D
330
2
100
AcDbEntity
  8
0
 62
     1
100
AcDbLine
 10
21807.79493963147
 20
3.066354011049956
 30
0.0
 11
21879.79493963148
 21
3.066354011049948
 31
0.0
  0
TEXT
  5
18E
330
2
100
AcDbEntity
  8
0Wymiary-PL
 62
   140
100
AcDbText
 10
21389.93779677434
 20
43.0663540110445
 30
0.0
 40
80.0
  1
702
 41
0.9
  7
ROMANS
100
AcDbText
  0
LINE
  5
18F
330
2
100
AcDbEntity
  8
0
 62
     1
100
AcDbLine
 10
21843.79493963148
 20
-29.93364598895551
 30
0.0
 11
21843.79493963148
 21
36.0663540110445
 31
0.0
  0
LINE
  5
190
330
2
100
AcDbEntity
  8
0
 62
     1
100
AcDbLine
 10
21879.79493963148
 20
3.066354011044495
 30
0.0
 11
21807.79493963148
 21
3.066354011044495
 31
0.0
  0
LINE
  5
191
330
2
100
AcDbEntity
  8
0
 62
     1
100
AcDbLine
 10
21141.79493963148
 20
36.0663540110445
 30
0.0
 11
21141.79493963148
 21
-29.93364598895551
 31
0.0
  0
LINE
  5
192
330
2
100
AcDbEntity
  8
0
 62
     1
100
AcDbLine
 10
21105.79493963148
 20
3.0663540110445
 30
0.0
 11
21177.79493963148
 21
3.066354011044491
 31
0.0
  0
TEXT
  5
193
330
2
100
AcDbEntity
  8
0Wymiary-PL
 62
   140
100
AcDbText
 10
20963.79493963148
 20
43.06635401104995
 30
0.0
 40
80.0
  1
140
 41
0.9
  7
ROMANS
100
AcDbText
  0
LINE
  5
194
330
2
100
AcDbEntity
  8
0
 62
     1
100
AcDbLine
 10
21141.79493963148
 20
36.06635401104995
 30
0.0
 11
21141.79493963148
 21
-29.93364598895005
 31
0.0
  0
LINE
  5
195
330
2
100
AcDbEntity
  8
0
 62
     1
100
AcDbLine
 10
21105.79493963148
 20
3.066354011049956
 30
0.0
 11
21177.79493963148
 21
3.066354011049948
 31
0.0
  0
LINE
  5
196
330
2
100
AcDbEntity
  8
0
 62
     1
100
AcDbLine
 10
21001.79493963148
 20
-29.93364598895005
 30
0.0
 11
21001.79493963148
 21
36.06635401104995
 31
0.0
  0
LINE
  5
197
330
2
100
AcDbEntity
  8
0
 62
     1
100
AcDbLine
 10
21037.79493963148
 20
3.066354011049952
 30
0.0
 11
20965.79493963148
 21
3.066354011049952
 31
0.0
  0
TEXT
  5
198
330
2
100
AcDbEntity
  8
0Wymiary-PL
 62
   140
100
AcDbText
 10
22776.95235817539
 20
887.2950318344445
 30
0.0
 40
80.0
  1
927
 50
90.0
 41
0.9
  7
ROMANS
100
AcDbText
  0
LINE
  5
199
330
2
100
AcDbEntity
  8
0
 62
     1
100
AcDbLine
 10
22783.95235817539
 20
526.574394792923
 30
0.0
 11
22849.9523581754
 21
526.574394792923
 31
0.0
  0
LINE
  5
19A
330
2
100
AcDbEntity
  8
0
 62
     1
100
AcDbLine
 10
22816.95235817539
 20
490.574394792923
 30
0.0
 11
22816.95235817539
 21
562.574394792923
 31
0.0
  0
LINE
  5
19B
330
2
100
AcDbEntity
  8
0
 62
     1
100
AcDbLine
 10
22849.9523581754
 20
1453.729954590244
 30
0.0
 11
22783.95235817539
 21
1453.729954590244
 31
0.0
  0
LINE
  5
19C
330
2
100
AcDbEntity
  8
0
 62
     1
100
AcDbLine
 10
22816.95235817539
 20
1489.729954590244
 30
0.0
 11
22816.95235817539
 21
1417.729954590244
 31
0.0
  0
TEXT
  5
19D
330
2
100
AcDbEntity
  8
0Wymiary-PL
 62
   140
100
AcDbText
 10
22776.95235817539
 20
1670.580746119957
 30
0.0
 40
80.0
  1
643
 50
90.0
 41
0.9
  7
ROMANS
100
AcDbText
  0
LINE
  5
19E
330
2
100
AcDbEntity
  8
0
 62
     1
100
AcDbLine
 10
22783.95235817539
 20
1453.729954590239
 30
0.0
 11
22849.95235817539
 21
1453.729954590239
 31
0.0
  0
LINE
  5
19F
330
2
100
AcDbEntity
  8
0
 62
     1
100
AcDbLine
 10
22816.95235817539
 20
1417.729954590239
 30
0.0
 11
22816.95235817539
 21
1489.729954590239
 31
0.0
  0
LINE
  5
1A0
330
2
100
AcDbEntity
  8
0
 62
     1
100
AcDbLine
 10
22849.95235817539
 20
2096.574394792525
 30
0.0
 11
22783.95235817539
 21
2096.574394792525
 31
0.0
  0
LINE
  5
1A1
330
2
100
AcDbEntity
  8
0
 62
     1
100
AcDbLine
 10
22816.95235817539
 20
2132.574394792525
 30
0.0
 11
22816.95235817539
 21
2060.574394792525
 31
0.0
  0
TEXT
  5
1A2
330
2
100
AcDbEntity
  8
0Wymiary-PL
 62
   140
100
AcDbText
 10
20165.13884084574
 20
1169.288680507013
 30
0.0
 40
80.0
  1
1570
 50
90.0
 41
0.9
  7
ROMANS
100
AcDbText
  0
LINE
  5
1A3
330
2
100
AcDbEntity
  8
0
 62
     1
100
AcDbLine
 10
20172.13884084574
 20
526.5743947929236
 30
0.0
 11
20238.13884084574
 21
526.5743947929236
 31
0.0
  0
LINE
  5
1A4
330
2
100
AcDbEntity
  8
0
 62
     1
100
AcDbLine
 10
20205.13884084574
 20
490.5743947929237
 30
0.0
 11
20205.13884084574
 21
562.5743947929237
 31
0.0
  0
LINE
  5
1A5
330
2
100
AcDbEntity
  8
0
 62
     1
100
AcDbLine
 10
20238.13884084574
 20
2096.574394792525
 30
0.0
 11
20172.13884084574
 21
2096.574394792525
 31
0.0
  0
LINE
  5
1A6
330
2
100
AcDbEntity
  8
0
 62
     1
100
AcDbLine
 10
20205.13884084574
 20
2132.574394792525
 30
0.0
 11
20205.13884084574
 21
2060.574394792525
 31
0.0
  0
TEXT
  5
1A7
330
2
100
AcDbEntity
  8
0Wymiary-PL
 62
   140
100
AcDbText
 10
20413.06749669528
 20
583.7172519355846
 30
0.0
 40
80.0
  1
320
 50
90.0
 41
0.9
  7
ROMANS
100
AcDbText
  0
LINE
  5
1A8
330
2
100
AcDbEntity
  8
0
 62
     1
100
AcDbLine
 10
20420.06749669528
 20
526.5743947929236
 30
0.0
 11
20486.06749669528
 21
526.5743947929236
 31
0.0
  0
LINE
  5
1A9
330
2
100
AcDbEntity
  8
0
 62
     1
100
AcDbLine
 10
20453.06749669528
 20
490.5743947929236
 30
0.0
 11
20453.06749669528
 21
562.5743947929236
 31
0.0
  0
LINE
  5
1AA
330
2
100
AcDbEntity
  8
0
 62
     1
100
AcDbLine
 10
20486.06749669528
 20
846.5743947925249
 30
0.0
 11
20420.06749669528
 21
846.5743947925249
 31
0.0
  0
LINE
  5
1AB
330
2
100
AcDbEntity
  8
0
 62
     1
100
AcDbLine
 10
20453.06749669528
 20
882.5743947925248
 30
0.0
 11
20453.06749669528
 21
810.5743947925249
 31
0.0
  0
TEXT
  5
1AC
330
2
100
AcDbEntity
  8
0Wymiary-PL
 62
   140
100
AcDbText
 10
20413.06749669528
 20
1329.288680506811
 30
0.0
 40
80.0
  1
1250
 50
90.0
 41
0.9
  7
ROMANS
100
AcDbText
  0
LINE
  5
1AD
330
2
100
AcDbEntity
  8
0
 62
     1
100
AcDbLine
 10
20420.06749669528
 20
846.5743947925194
 30
0.0
 11
20486.06749669528
 21
846.5743947925194
 31
0.0
  0
LINE
  5
1AE
330
2
100
AcDbEntity
  8
0
 62
     1
100
AcDbLine
 10
20453.06749669528
 20
810.5743947925194
 30
0.0
 11
20453.06749669528
 21
882.5743947925195
 31
0.0
  0
LINE
  5
1AF
330
2
100
AcDbEntity
  8
0
 62
     1
100
AcDbLine
 10
20486.06749669528
 20
2096.574394792525
 30
0.0
 11
20420.06749669528
 21
2096.574394792525
 31
0.0
  0
LINE
  5
1B0
330
2
100
AcDbEntity
  8
0
 62
     1
100
AcDbLine
 10
20453.06749669528
 20
2132.574394792525
 30
0.0
 11
20453.06749669528
 21
2060.574394792525
 31
0.0
  0
TEXT
  5
1B1
330
2
100
AcDbEntity
  8
0Wymiary-PL
 62
   140
100
AcDbText
 10
21622.00922534577
 20
2865.098334618439
 30
0.0
 40
80.0
  1
1525
 41
0.9
  7
ROMANS
100
AcDbText
  0
LINE
  5
1B2
330
2
100
AcDbEntity
  8
0
 62
     1
100
AcDbLine
 10
21001.79493963147
 20
2858.09833461844
 30
0.0
 11
21001.79493963147
 21
2792.098334618439
 31
0.0
  0
LINE
  5
1B3
330
2
100
AcDbEntity
  8
0
 62
     1
100
AcDbLine
 10
20965.79493963148
 20
2825.09833461844
 30
0.0
 11
21037.79493963148
 21
2825.09833461844
 31
0.0
  0
LINE
  5
1B4
330
2
100
AcDbEntity
  8
0
 62
     1
100
AcDbLine
 10
22526.79493963148
 20
2792.098334618439
 30
0.0
 11
22526.79493963148
 21
2858.09833461844
 31
0.0
  0
LINE
  5
1B5
330
2
100
AcDbEntity
  8
0
 62
     1
100
AcDbLine
 10
22562.79493963148
 20
2825.09833461844
 30
0.0
 11
22490.79493963149
 21
2825.09833461844
 31
0.0
  0
TEXT
  5
1B6
330
2
100
AcDbEntity
  8
0Wymiary-PL
 62
   140
100
AcDbText
 10
20963.79493963148
 20
2650.111326273347
 30
0.0
 40
80.0
  1
140
 41
0.9
  7
ROMANS
100
AcDbText
  0
LINE
  5
1B7
330
2
100
AcDbEntity
  8
0
 62
     1
100
AcDbLine
 10
21001.79493963148
 20
2577.111326273346
 30
0.0
 11
21001.79493963148
 21
2643.111326273347
 31
0.0
  0
LINE
  5
1B8
330
2
100
AcDbEntity
  8
0
 62
     1
100
AcDbLine
 10
21037.79493963148
 20
2610.111326273347
 30
0.0
 11
20965.79493963148
 21
2610.111326273347
 31
0.0
  0
LINE
  5
1B9
330
2
100
AcDbEntity
  8
0
 62
     1
100
AcDbLine
 10
21141.79493963148
 20
2643.111326273347
 30
0.0
 11
21141.79493963148
 21
2577.111326273346
 31
0.0
  0
LINE
  5
1BA
330
2
100
AcDbEntity
  8
0
 62
     1
100
AcDbLine
 10
21105.79493963148
 20
2610.111326273347
 30
0.0
 11
21177.79493963148
 21
2610.111326273347
 31
0.0
  0
TEXT
  5
1BB
330
2
100
AcDbEntity
  8
0Wymiary-PL
 62
   140
100
AcDbText
 10
22291.43779677434
 20
2650.111326273357
 30
0.0
 40
80.0
  1
265
 41
0.9
  7
ROMANS
100
AcDbText
  0
LINE
  5
1BC
330
2
100
AcDbEntity
  8
0
 62
     1
100
AcDbLine
 10
22526.79493963148
 20
2577.111326273357
 30
0.0
 11
22526.79493963148
 21
2643.111326273357
 31
0.0
  0
LINE
  5
1BD
330
2
100
AcDbEntity
  8
0
 62
     1
100
AcDbLine
 10
22562.79493963148
 20
2610.111326273357
 30
0.0
 11
22490.79493963149
 21
2610.111326273357
 31
0.0
  0
LINE
  5
1BE
330
2
100
AcDbEntity
  8
0
 62
     1
100
AcDbLine
 10
22261.79493963148
 20
2643.111326273357
 30
0.0
 11
22261.79493963148
 21
2577.111326273357
 31
0.0
  0
LINE
  5
1BF
330
2
100
AcDbEntity
  8
0
 62
     1
100
AcDbLine
 10
22225.79493963148
 20
2610.111326273357
 30
0.0
 11
22297.79493963148
 21
2610.111326273357
 31
0.0
  0
TEXT
  5
1C0
330
2
100
AcDbEntity
  8
0Wymiary-PL
 62
   140
100
AcDbText
 10
21559.50922534576
 20
2650.111326273352
 30
0.0
 40
80.0
  1
1120
 41
0.9
  7
ROMANS
100
AcDbText
  0
LINE
  5
1C1
330
2
100
AcDbEntity
  8
0
 62
     1
100
AcDbLine
 10
21141.79493963148
 20
2643.111326273352
 30
0.0
 11
21141.79493963148
 21
2577.111326273352
 31
0.0
  0
LINE
  5
1C2
330
2
100
AcDbEntity
  8
0
 62
     1
100
AcDbLine
 10
21105.79493963148
 20
2610.111326273352
 30
0.0
 11
21177.79493963148
 21
2610.111326273352
 31
0.0
  0
LINE
  5
1C3
330
2
100
AcDbEntity
  8
0
 62
     1
100
AcDbLine
 10
22261.79493963148
 20
2577.111326273352
 30
0.0
 11
22261.79493963148
 21
2643.111326273352
 31
0.0
  0
LINE
  5
1C4
330
2
100
AcDbEntity
  8
0
 62
     1
100
AcDbLine
 10
22297.79493963148
 20
2610.111326273352
 30
0.0
 11
22225.79493963148
 21
2610.111326273352
 31
0.0
  0
LINE
  5
1C5
330
2
100
AcDbEntity
  8
0
 62
     1
100
AcDbLine
 10
27527.90105545094
 20
2075.361191356928
 30
0.0
 11
27485.47464857975
 21
2117.787598228119
 31
0.0
  0
LINE
  5
1C6
330
2
100
AcDbEntity
  8
0
 62
     1
100
AcDbLine
 10
27485.47464857975
 20
547.7875982285199
 30
0.0
 11
27527.90105545094
 21
505.361191357328
 31
0.0
  0
LINE
  5
1C7
330
2
100
AcDbEntity
  8
0
 62
     1
100
AcDbLine
 10
27333.7304758506
 20
2075.361191356928
 30
0.0
 11
27291.30406897941
 21
2117.787598228119
 31
0.0
  0
LINE
  5
1C8
330
2
100
AcDbEntity
  8
0
 62
     1
100
AcDbLine
 10
27291.30406897941
 20
867.7875982281163
 30
0.0
 11
27333.7304758506
 21
825.3611913569244
 31
0.0
  0
LINE
  5
1C9
330
2
100
AcDbEntity
  8
0
 62
     1
100
AcDbLine
 10
27333.7304758506
 20
825.3611913569271
 30
0.0
 11
27291.30406897941
 21
867.7875982281189
 31
0.0
  0
LINE
  5
1CA
330
2
100
AcDbEntity
  8
0
 62
     1
100
AcDbLine
 10
27291.30406897941
 20
547.7875982285199
 30
0.0
 11
27333.7304758506
 21
505.3611913573281
 31
0.0
  0
LINE
  5
1CB
330
2
100
AcDbEntity
  8
0
 62
     1
100
AcDbLine
 10
26486.15782579037
 20
24.27955744665132
 30
0.0
 11
26443.73141891918
 21
-18.1468494245405
 31
0.0
  0
LINE
  5
1CC
330
2
100
AcDbEntity
  8
0
 62
     1
100
AcDbLine
 10
26303.73141891917
 20
-18.14684942453778
 30
0.0
 11
26346.15782579037
 21
24.27955744665406
 31
0.0
  0
LINE
  5
1CD
330
2
100
AcDbEntity
  8
0
 62
     1
100
AcDbLine
 10
26303.73141891917
 20
-18.14684942453914
 30
0.0
 11
26346.15782579037
 21
24.27955744665269
 31
0.0
  0
LINE
  5
1CE
330
2
100
AcDbEntity
  8
0
 62
     1
100
AcDbLine
 10
25644.15782579037
 20
24.27955744664996
 30
0.0
 11
25601.73141891918
 21
-18.14684942454186
 31
0.0
  0
LINE
  5
1CF
330
2
100
AcDbEntity
  8
0
 62
     1
100
AcDbLine
 10
25601.73141891918
 20
-18.14684942453959
 30
0.0
 11
25644.15782579037
 21
24.27955744665224
 31
0.0
  0
LINE
  5
1D0
330
2
100
AcDbEntity
  8
0
 62
     1
100
AcDbLine
 10
24961.15780039037
 20
24.2795574466495
 30
0.0
 11
24918.73139351918
 21
-18.14684942454232
 31
0.0
  0
LINE
  5
1D1
330
2
100
AcDbEntity
  8
0
 62
     1
100
AcDbLine
 10
26443.73141891918
 20
2822.278827635925
 30
0.0
 11
26486.15782579037
 21
2864.705234507117
 31
0.0
  0
LINE
  5
1D2
330
2
100
AcDbEntity
  8
0
 62
     1
100
AcDbLine
 10
24961.15780039037
 20
2864.705234507114
 30
0.0
 11
24918.73139351918
 21
2822.278827635923
 31
0.0
  0
LINE
  5
1D3
330
2
100
AcDbEntity
  8
0
 62
     1
100
AcDbLine
 10
26486.15782579037
 20
2631.324529708952
 30
0.0
 11
26443.73141891918
 21
2588.89812283776
 31
0.0
  0
LINE
  5
1D4
330
2
100
AcDbEntity
  8
0
 62
     1
100
AcDbLine
 10
26303.73141891917
 20
2588.898122837762
 30
0.0
 11
26346.15782579037
 21
2631.324529708955
 31
0.0
  0
LINE
  5
1D5
330
2
100
AcDbEntity
  8
0
 62
     1
100
AcDbLine
 10
26303.73141891917
 20
2588.898122837762
 30
0.0
 11
26346.15782579037
 21
2631.324529708955
 31
0.0
  0
LINE
  5
1D6
330
2
100
AcDbEntity
  8
0
 62
     1
100
AcDbLine
 10
25226.15782579037
 20
2631.324529708952
 30
0.0
 11
25183.73141891918
 21
2588.89812283776
 31
0.0
  0
LINE
  5
1D7
330
2
100
AcDbEntity
  8
0
 62
     1
100
AcDbLine
 10
25183.73141891918
 20
2588.898122837762
 30
0.0
 11
25226.15782579037
 21
2631.324529708955
 31
0.0
  0
LINE
  5
1D8
330
2
100
AcDbEntity
  8
0
 62
     1
100
AcDbLine
 10
24961.15780039037
 20
2631.324529708952
 30
0.0
 11
24918.73139351918
 21
2588.89812283776
 31
0.0
  0
LINE
  5
1D9
330
2
100
AcDbEntity
  8
0
 62
     1
100
AcDbLine
 10
24632.60099957939
 20
2075.361191356928
 30
0.0
 11
24590.1745927082
 21
2117.787598228119
 31
0.0
  0
LINE
  5
1DA
330
2
100
AcDbEntity
  8
0
 62
     1
100
AcDbLine
 10
24590.1745927082
 20
1474.943158025836
 30
0.0
 11
24632.60099957939
 21
1432.516751154644
 31
0.0
  0
LINE
  5
1DB
330
2
100
AcDbEntity
  8
0
 62
     1
100
AcDbLine
 10
24632.6009995794
 20
1432.516751154647
 30
0.0
 11
24590.1745927082
 21
1474.943158025839
 31
0.0
  0
LINE
  5
1DC
330
2
100
AcDbEntity
  8
0
 62
     1
100
AcDbLine
 10
24590.17459270821
 20
547.7875982285205
 30
0.0
 11
24632.6009995794
 21
505.3611913573287
 31
0.0
  0
LINE
  5
1DD
330
2
100
AcDbEntity
  8
0
 62
     1
100
AcDbLine
 10
22505.58176159588
 20
-18.1468494245446
 30
0.0
 11
22548.00816846707
 21
24.27955744664723
 31
0.0
  0
LINE
  5
1DE
330
2
100
AcDbEntity
  8
0
 62
     1
100
AcDbLine
 10
21865.00814306707
 20
24.2795574466445
 30
0.0
 11
21822.58173619588
 21
-18.14684942454732
 31
0.0
  0
LINE
  5
1DF
330
2
100
AcDbEntity
  8
0
 62
     1
100
AcDbLine
 10
21822.58173619588
 20
-18.14684942455005
 30
0.0
 11
21865.00814306707
 21
24.27955744664178
 31
0.0
  0
LINE
  5
1E0
330
2
100
AcDbEntity
  8
0
 62
     1
100
AcDbLine
 10
21163.00814306708
 20
24.27955744663905
 30
0.0
 11
21120.58173619588
 21
-18.14684942455278
 31
0.0
  0
LINE
  5
1E1
330
2
100
AcDbEntity
  8
0
 62
     1
100
AcDbLine
 10
21163.00814306708
 20
24.2795574466445
 30
0.0
 11
21120.58173619588
 21
-18.14684942454732
 31
0.0
  0
LINE
  5
1E2
330
2
100
AcDbEntity
  8
0
 62
     1
100
AcDbLine
 10
20980.58173619588
 20
-18.1468494245446
 30
0.0
 11
21023.00814306708
 21
24.27955744664723
 31
0.0
  0
LINE
  5
1E3
330
2
100
AcDbEntity
  8
0
 62
     1
100
AcDbLine
 10
22795.7391547398
 20
547.7875982285203
 30
0.0
 11
22838.16556161099
 21
505.3611913573284
 31
0.0
  0
LINE
  5
1E4
330
2
100
AcDbEntity
  8
0
 62
     1
100
AcDbLine
 10
22838.16556161099
 20
1432.516751154647
 30
0.0
 11
22795.7391547398
 21
1474.943158025839
 31
0.0
  0
LINE
  5
1E5
330
2
100
AcDbEntity
  8
0
 62
     1
100
AcDbLine
 10
22795.7391547398
 20
1474.943158025836
 30
0.0
 11
22838.16556161099
 21
1432.516751154644
 31
0.0
  0
LINE
  5
1E6
330
2
100
AcDbEntity
  8
0
 62
     1
100
AcDbLine
 10
22838.16556161099
 20
2075.361191356928
 30
0.0
 11
22795.73915473979
 21
2117.787598228119
 31
0.0
  0
LINE
  5
1E7
330
2
100
AcDbEntity
  8
0
 62
     1
100
AcDbLine
 10
20183.92563741015
 20
547.787598228521
 30
0.0
 11
20226.35204428134
 21
505.3611913573291
 31
0.0
  0
LINE
  5
1E8
330
2
100
AcDbEntity
  8
0
 62
     1
100
AcDbLine
 10
20226.35204428134
 20
2075.361191356928
 30
0.0
 11
20183.92563741015
 21
2117.787598228119
 31
0.0
  0
LINE
  5
1E9
330
2
100
AcDbEntity
  8
0
 62
     1
100
AcDbLine
 10
20431.85429325969
 20
547.7875982285208
 30
0.0
 11
20474.28070013088
 21
505.361191357329
 31
0.0
  0
LINE
  5
1EA
330
2
100
AcDbEntity
  8
0
 62
     1
100
AcDbLine
 10
20474.28070013088
 20
825.3611913569276
 30
0.0
 11
20431.85429325968
 21
867.7875982281195
 31
0.0
  0
LINE
  5
1EB
330
2
100
AcDbEntity
  8
0
 62
     1
100
AcDbLine
 10
20431.85429325969
 20
867.7875982281166
 30
0.0
 11
20474.28070013088
 21
825.3611913569249
 31
0.0
  0
LINE
  5
1EC
330
2
100
AcDbEntity
  8
0
 62
     1
100
AcDbLine
 10
20474.28070013088
 20
2075.361191356928
 30
0.0
 11
20431.85429325968
 21
2117.787598228119
 31
0.0
  0
LINE
  5
1ED
330
2
100
AcDbEntity
  8
0
 62
     1
100
AcDbLine
 10
21023.00814306708
 20
2846.311538054034
 30
0.0
 11
20980.58173619588
 21
2803.885131182842
 31
0.0
  0
LINE
  5
1EE
330
2
100
AcDbEntity
  8
0
 62
     1
100
AcDbLine
 10
22505.58173619588
 20
2803.885131182845
 30
0.0
 11
22548.00814306708
 21
2846.311538054037
 31
0.0
  0
LINE
  5
1EF
330
2
100
AcDbEntity
  8
0
 62
     1
100
AcDbLine
 10
20980.58173619588
 20
2588.898122837752
 30
0.0
 11
21023.00814306708
 21
2631.324529708944
 31
0.0
  0
LINE
  5
1F0
330
2
100
AcDbEntity
  8
0
 62
     1
100
AcDbLine
 10
21163.00814306708
 20
2631.324529708941
 30
0.0
 11
21120.58173619588
 21
2588.898122837749
 31
0.0
  0
LINE
  5
1F1
330
2
100
AcDbEntity
  8
0
 62
     1
100
AcDbLine
 10
22505.58173619588
 20
2588.898122837762
 30
0.0
 11
22548.00814306708
 21
2631.324529708955
 31
0.0
  0
LINE
  5
1F2
330
2
100
AcDbEntity
  8
0
 62
     1
100
AcDbLine
 10
22283.00814306708
 20
2631.324529708952
 30
0.0
 11
22240.58173619588
 21
2588.89812283776
 31
0.0
  0
LINE
  5
1F3
330
2
100
AcDbEntity
  8
0
 62
     1
100
AcDbLine
 10
21163.00814306708
 20
2631.324529708946
 30
0.0
 11
21120.58173619588
 21
2588.898122837755
 31
0.0
  0
LINE
  5
1F4
330
2
100
AcDbEntity
  8
0
 62
     1
100
AcDbLine
 10
22240.58173619588
 20
2588.898122837757
 30
0.0
 11
22283.00814306708
 21
2631.324529708949
 31
0.0
  0
ENDSEC
  0
SECTION
  2
OBJECTS
  0
DICTIONARY
  5
B
330
0
100
AcDbDictionary
281
     1
  3
ACAD_COLOR
350
221
  3
ACAD_GROUP
350
21C
  3
ACAD_LAYOUT
350
1F7
  3
ACAD_MATERIAL
350
D
  3
ACAD_MLINESTYLE
350
21D
  3
ACAD_PLOTSETTINGS
350
21E
  3
ACAD_PLOTSTYLENAME
350
A
  3
ACAD_SCALELIST
350
222
  3
ACAD_TABLESTYLE
350
223
  3
ACAD_VISUALSTYLE
350
1FA
  3
ACDB_RECOMPOSE_DATA
350
249
  3
AcDbVariableDictionary
350
240
  3
DWGPROPS
350
24A
  0
DICTIONARY
  5
203
330
202
100
AcDbDictionary
280
     1
281
     1
  3
ACAD_LAYERSTATES
360
204
  0
DICTIONARY
  5
7
330
6
100
AcDbDictionary
280
     1
281
     1
  3
ADSK_XREC_LAYER_RECONCILED
360
8
  0
DICTIONARY
  5
12
330
11
100
AcDbDictionary
280
     1
281
     1
  3
ADSK_XREC_LAYER_RECONCILED
360
13
  0
DICTIONARY
  5
2D
330
2C
100
AcDbDictionary
280
     1
281
     1
  3
ADSK_XREC_LAYER_RECONCILED
360
2E
  0
DICTIONARY
  5
6C
330
6B
100
AcDbDictionary
280
     1
281
     1
  3
ADSK_XREC_LAYER_RECONCILED
360
6D
  0
DICTIONARY
  5
EB
330
EA
100
AcDbDictionary
280
     1
281
     1
  3
ADSK_XREC_LAYER_RECONCILED
360
EC
  0
DICTIONARY
  5
1D
330
1C
100
AcDbDictionary
280
     1
281
     1
  3
ADSK_XREC_LAYER_RECONCILED
360
1E
  0
DICTIONARY
  5
21
330
20
100
AcDbDictionary
280
     1
281
     1
  3
ADSK_XREC_LAYER_RECONCILED
360
22
  0
DICTIONARY
  5
3
330
2
100
AcDbDictionary
280
     1
281
     1
  3
ACAD_SORTENTS
360
23F
  0
DICTIONARY
  5
214
330
213
100
AcDbDictionary
280
     1
281
     1
  3
ACAD_SORTENTS
360
23E
  0
DICTIONARY
  5
221
102
{ACAD_REACTORS
330
B
102
}
330
B
100
AcDbDictionary
281
     1
  0
DICTIONARY
  5
21C
102
{ACAD_REACTORS
330
B
102
}
330
B
100
AcDbDictionary
281
     1
  0
DICTIONARY
  5
1F7
102
{ACAD_REACTORS
330
B
102
}
330
B
100
AcDbDictionary
281
     1
  3
1Sytuacja
350
1FF
  3
Model
350
1F6
  0
DICTIONARY
  5
D
102
{ACAD_REACTORS
330
B
102
}
330
B
100
AcDbDictionary
281
     1
  3
ByBlock
350
220
  3
ByLayer
350
21F
  3
Global
350
C
  0
DICTIONARY
  5
21D
102
{ACAD_REACTORS
330
B
102
}
330
B
100
AcDbDictionary
281
     1
  3
STANDARD
350
224
  0
DICTIONARY
  5
21E
102
{ACAD_REACTORS
330
B
102
}
330
B
100
AcDbDictionary
281
     1
  0
ACDBDICTIONARYWDFLT
  5
A
102
{ACAD_REACTORS
330
B
102
}
330
B
100
AcDbDictionary
281
     1
  3
Medium
350
5A
  3
Normal
350
9
  3
Style 1
350
59
100
AcDbDictionaryWithDefault
340
9
  0
DICTIONARY
  5
222
102
{ACAD_REACTORS
330
B
102
}
330
B
100
AcDbDictionary
281
     1
  3
A0
350
229
  3
A1
350
22A
  3
A2
350
22B
  3
A3
350
22C
  3
A4
350
22D
  3
A5
350
22E
  3
A6
350
22F
  3
A7
350
230
  3
A8
350
231
  3
A9
350
232
  3
B0
350
233
  3
B1
350
234
  3
B2
350
235
  3
B3
350
236
  3
B4
350
237
  3
B5
350
238
  3
B6
350
239
  3
B7
350
23A
  3
B8
350
23B
  3
B9
350
23C
  3
C0
350
23D
  0
DICTIONARY
  5
223
102
{ACAD_REACTORS
330
B
102
}
330
B
100
AcDbDictionary
281
     1
  3
Standard
350
225
  0
DICTIONARY
  5
1FA
102
{ACAD_REACTORS
330
B
102
}
330
B
100
AcDbDictionary
281
     1
  3
2dWireframe
350
1F9
  3
3dWireframe
350
228
  3
Realistic
350
227
  0
XRECORD
  5
249
102
{ACAD_REACTORS
330
B
102
}
330
B
100
AcDbXrecord
280
     1
 90
        1
330
225
  0
DICTIONARY
  5
240
102
{ACAD_REACTORS
330
B
102
}
330
B
100
AcDbDictionary
281
     1
  3
CANNOSCALE
350
243
  3
CMLEADERSTYLE
350
242
  3
CTABLESTYLE
350
241
  3
DIMASSOC
350
247
  3
HIDETEXT
350
246
  3
INDEXCTL
350
245
  3
SORTENTS
350
244
  0
XRECORD
  5
24A
102
{ACAD_REACTORS
330
B
102
}
330
B
100
AcDbXrecord
280
     1
  1
DWGPROPS COOKIE
  2

  3

  4

  6

  7

  8

  9

300
=
301
=
302
=
303
=
304
=
305
=
306
=
307
=
308
=
309
=
 40
21.99841921296297
 41
2450817.525937848
 42
2455357.47134331
  1

 90
        0
  0
DICTIONARY
  5
204
102
{ACAD_REACTORS
330
203
102
}
330
203
100
AcDbDictionary
281
     1
1001
AcLayerTools
1000
39884
1000
0
  0
XRECORD
  5
8
102
{ACAD_REACTORS
330
7
102
}
330
7
100
AcDbXrecord
280
     1
290
     1
  0
XRECORD
  5
13
102
{ACAD_REACTORS
330
12
102
}
330
12
100
AcDbXrecord
280
     1
290
     1
  0
XRECORD
  5
2E
102
{ACAD_REACTORS
330
2D
102
}
330
2D
100
AcDbXrecord
280
     1
290
     1
  0
XRECORD
  5
6D
102
{ACAD_REACTORS
330
6C
102
}
330
6C
100
AcDbXrecord
280
     1
290
     1
  0
XRECORD
  5
EC
102
{ACAD_REACTORS
330
EB
102
}
330
EB
100
AcDbXrecord
280
     1
290
     1
  0
XRECORD
  5
1E
102
{ACAD_REACTORS
330
1D
102
}
330
1D
100
AcDbXrecord
280
     1
290
     1
  0
XRECORD
  5
22
102
{ACAD_REACTORS
330
21
102
}
330
21
100
AcDbXrecord
280
     1
290
     1
  0
SORTENTSTABLE
  5
23F
102
{ACAD_REACTORS
330
3
102
}
330
3
100
AcDbSortentsTable
330
2
331
132
  5
46
331
169
  5
1C4
331
BC
  5
FF
331
F3
  5
1C3
331
1A8
  5
15B
331
7D
  5
9D
331
1E7
  5
164
331
13A
  5
4E
331
171
  5
1B7
331
85
  5
A5
331
C4
  5
107
331
FB
  5
191
331
1B0
  5
152
331
1B8
  5
144
331
1EF
  5
143
331
103
  5
15F
331
142
  5
35
331
8D
  5
AD
331
CC
  5
10F
331
179
  5
1AC
331
181
  5
19F
331
1C0
  5
133
331
D4
  5
117
331
10B
  5
12C
331
95
  5
D5
331
14A
  5
3D
331
42
  5
65
331
4A
  5
70
331
52
  5
78
331
189
  5
190
331
1C8
  5
1E7
331
DC
  5
11F
331
113
  5
CB
331
9D
  5
DD
331
152
  5
1EC
331
15A
  5
1DE
331
191
  5
182
331
A5
  5
E5
331
E4
  5
127
331
11B
  5
D3
331
1D0
  5
1C5
331
1D8
  5
1A3
331
123
  5
BA
331
AD
  5
F0
331
162
  5
1CF
331
199
  5
173
331
1A1
  5
16A
331
12B
  5
C2
331
B5
  5
F8
331
62
  5
85
331
6A
  5
8D
331
2B
  5
50
331
33
  5
54
331
72
  5
92
331
3B
  5
5E
331
1A9
  5
15D
331
1E0
  5
183
331
F4
  5
1BB
331
133
  5
47
331
7E
  5
9E
331
BD
  5
100
331
16A
  5
1C6
331
172
  5
1B9
331
1B1
  5
14E
331
C5
  5
108
331
FC
  5
189
331
86
  5
A6
331
13B
  5
4F
331
1E8
  5
161
331
1F0
  5
140
331
143
  5
36
331
17A
  5
1A8
331
CD
  5
110
331
104
  5
157
331
1B9
  5
13F
331
8E
  5
AE
331
14B
  5
3E
331
182
  5
19A
331
96
  5
D6
331
D5
  5
118
331
10C
  5
C4
331
1C1
  5
130
331
43
  5
66
331
4B
  5
71
331
53
  5
79
331
5B
  5
7E
331
1C9
  5
1E2
331
114
  5
CC
331
153
  5
1E9
331
9E
  5
DE
331
DD
  5
120
331
18A
  5
18D
331
192
  5
184
331
1D1
  5
1C0
331
E5
  5
128
331
11C
  5
B3
331
A6
  5
E6
331
15B
  5
1E0
331
19A
  5
175
331
1D9
  5
19E
331
ED
  5
1E5
331
124
  5
BB
331
AE
  5
F1
331
163
  5
1D1
331
1A2
  5
166
331
B6
  5
F9
331
12C
  5
40
331
63
  5
86
331
73
  5
93
331
3C
  5
5F
331
1E1
  5
17E
331
134
  5
48
331
16B
  5
1C2
331
7F
  5
9F
331
BE
  5
101
331
F5
  5
1B1
331
1AA
  5
158
331
1B2
  5
14A
331
1E9
  5
15C
331
13C
  5
2A
331
173
  5
1B4
331
87
  5
A7
331
C6
  5
109
331
FD
  5
181
331
1BA
  5
141
331
1F1
  5
139
331
105
  5
14F
331
144
  5
37
331
8F
  5
AF
331
CE
  5
111
331
17B
  5
1A5
331
183
  5
19C
331
1C2
  5
132
331
D6
  5
119
331
10D
  5
C5
331
97
  5
D7
331
14C
  5
1F4
331
44
  5
67
331
4C
  5
72
331
54
  5
7A
331
5C
  5
7F
331
154
  5
1EB
331
18B
  5
18F
331
DE
  5
121
331
115
  5
CD
331
1CA
  5
1DF
331
9F
  5
DF
331
15C
  5
1DC
331
193
  5
180
331
A7
  5
E7
331
E6
  5
129
331
11D
  5
B4
331
1D2
  5
1BD
331
1DA
  5
19B
331
125
  5
BC
331
164
  5
1CC
331
AF
  5
F2
331
EE
  5
1DD
331
19B
  5
170
331
1A3
  5
163
331
12D
  5
41
331
B7
  5
FA
331
64
  5
87
331
35
  5
55
331
74
  5
94
331
3D
  5
60
331
78
  5
98
331
1AB
  5
15A
331
1E2
  5
17B
331
F6
  5
1B2
331
135
  5
49
331
80
  5
A0
331
BF
  5
102
331
16C
  5
1BF
331
174
  5
1B6
331
1B3
  5
14C
331
C7
  5
10A
331
FE
  5
177
331
88
  5
A8
331
13D
  5
2B
331
1EA
  5
159
331
1F2
  5
136
331
145
  5
38
331
17C
  5
1A7
331
90
  5
B0
331
CF
  5
112
331
106
  5
146
331
1BB
  5
13B
331
1C3
  5
12D
331
184
  5
198
331
D7
  5
11A
331
10E
  5
C6
331
45
  5
68
331
4D
  5
73
331
55
  5
7B
331
5D
  5
80
331
98
  5
D8
331
1CB
  5
1DA
331
116
  5
CE
331
155
  5
1E6
331
A0
  5
E0
331
DF
  5
122
331
18C
  5
18A
331
194
  5
17D
331
1D3
  5
1B8
331
E7
  5
12A
331
11E
  5
B5
331
A8
  5
E8
331
15D
  5
1D9
331
165
  5
1CE
331
19C
  5
172
331
EF
  5
1D3
331
126
  5
BD
331
1DB
  5
196
331
B0
  5
F3
331
1A4
  5
165
331
12E
  5
42
331
65
  5
88
331
36
  5
56
331
75
  5
95
331
3E
  5
61
331
B8
  5
FB
331
79
  5
99
331
1E3
  5
174
331
136
  5
4A
331
16D
  5
1C1
331
81
  5
A1
331
C0
  5
103
331
F7
  5
1B3
331
1AC
  5
156
331
1B4
  5
147
331
1EB
  5
154
331
FF
  5
178
331
13E
  5
30
331
89
  5
A9
331
C8
  5
10B
331
175
  5
1B0
331
1BC
  5
138
331
1F3
  5
131
331
107
  5
13C
331
146
  5
39
331
91
  5
B1
331
D0
  5
113
331
17D
  5
1A2
331
185
  5
195
331
1C4
  5
12F
331
10F
  5
C7
331
14E
  5
1F1
331
46
  5
69
331
4E
  5
74
331
56
  5
7C
331
5E
  5
81
331
D8
  5
11B
331
99
  5
D9
331
156
  5
1E8
331
18D
  5
18C
331
A1
  5
E1
331
E0
  5
123
331
117
  5
CF
331
1CC
  5
1D7
331
1D4
  5
1B5
331
15E
  5
1DB
331
195
  5
17F
331
A9
  5
E9
331
E8
  5
12B
331
11F
  5
B6
331
1DC
  5
193
331
127
  5
BE
331
B1
  5
F4
331
166
  5
1CA
331
19D
  5
16E
331
1A5
  5
160
331
12F
  5
43
331
66
  5
89
331
6E
  5
8E
331
37
  5
57
331
76
  5
96
331
3F
  5
62
331
F0
  5
1D4
331
7A
  5
9A
331
B9
  5
FC
331
16E
  5
1BC
331
1AD
  5
153
331
F8
  5
1A9
331
137
  5
4B
331
1E4
  5
171
331
82
  5
A2
331
C1
  5
104
331
176
  5
1AD
331
1B5
  5
149
331
C9
  5
10C
331
100
  5
179
331
8A
  5
AA
331
13F
  5
31
331
1EC
  5
151
331
1F4
  5
12E
331
147
  5
3A
331
17E
  5
1A4
331
92
  5
B2
331
D1
  5
114
331
108
  5
13D
331
1BD
  5
13A
331
1C5
  5
1F2
331
14F
  5
1F3
331
186
  5
197
331
47
  5
6A
331
4F
  5
75
331
57
  5
7D
331
5F
  5
82
331
110
  5
C8
331
9A
  5
DA
331
D9
  5
11C
331
1CD
  5
1D0
331
118
  5
D0
331
157
  5
1E4
331
A2
  5
E2
331
E1
  5
124
331
18E
  5
188
331
196
  5
17A
331
1D5
  5
1AE
331
E9
  5
1ED
331
120
  5
B7
331
AA
  5
ED
331
15F
  5
1D6
331
167
  5
1C7
331
19E
  5
16B
331
B2
  5
F5
331
128
  5
BF
331
1DD
  5
18E
331
1A6
  5
162
331
67
  5
8A
331
30
  5
51
331
6F
  5
8F
331
77
  5
97
331
38
  5
5B
331
BA
  5
FD
331
F1
  5
1D5
331
7B
  5
9B
331
130
  5
44
331
1E5
  5
16C
331
138
  5
4C
331
16F
  5
1BE
331
83
  5
A3
331
C2
  5
105
331
F9
  5
1A1
331
1AE
  5
155
331
1B6
  5
145
331
1ED
  5
14B
331
101
  5
16F
331
140
  5
32
331
8B
  5
AB
331
CA
  5
10D
331
177
  5
1AF
331
17F
  5
1A0
331
1BE
  5
135
331
109
  5
13E
331
148
  5
3B
331
93
  5
C3
331
D2
  5
115
331
187
  5
192
331
1C6
  5
1EF
331
40
  5
63
331
48
  5
6E
331
50
  5
76
331
DA
  5
11D
331
111
  5
C9
331
9B
  5
DB
331
150
  5
1EE
331
158
  5
1E1
331
18F
  5
185
331
A3
  5
E3
331
E2
  5
125
331
119
  5
D1
331
1CE
  5
1CD
331
1D6
  5
1AB
331
121
  5
B8
331
AB
  5
EE
331
160
  5
1D8
331
197
  5
17C
331
1DE
  5
18B
331
129
  5
C0
331
B3
  5
F6
331
19F
  5
16D
331
1A7
  5
15E
331
60
  5
83
331
68
  5
8B
331
70
  5
90
331
31
  5
52
331
39
  5
5C
331
F2
  5
1CB
331
131
  5
45
331
7C
  5
9C
331
BB
  5
FE
331
168
  5
1C9
331
170
  5
1BA
331
1AF
  5
150
331
C3
  5
106
331
FA
  5
199
331
84
  5
A4
331
139
  5
4D
331
1E6
  5
169
331
1EE
  5
148
331
178
  5
1AA
331
1B7
  5
142
331
CB
  5
10E
331
102
  5
167
331
8C
  5
AC
331
141
  5
33
331
149
  5
3C
331
180
  5
19D
331
94
  5
D4
331
D3
  5
116
331
10A
  5
134
331
1BF
  5
137
331
1C7
  5
1EA
331
41
  5
64
331
49
  5
6F
331
51
  5
77
331
112
  5
CA
331
151
  5
1F0
331
9C
  5
DC
331
DB
  5
11E
331
188
  5
194
331
190
  5
187
331
1CF
  5
1C8
331
11A
  5
D2
331
159
  5
1E3
331
A4
  5
E4
331
E3
  5
126
331
198
  5
176
331
1D7
  5
1A6
331
122
  5
B9
331
AC
  5
EF
331
161
  5
1D2
331
1A0
  5
168
331
B4
  5
F7
331
12A
  5
C1
331
1DF
  5
186
331
61
  5
84
331
2A
  5
3F
331
69
  5
8C
331
32
  5
53
331
71
  5
91
331
3A
  5
5D
  0
SORTENTSTABLE
  5
23E
102
{ACAD_REACTORS
330
214
102
}
330
214
100
AcDbSortentsTable
330
213
  0
LAYOUT
  5
1FF
102
{ACAD_XDICTIONARY
360
200
102
}
102
{ACAD_REACTORS
330
1F7
102
}
330
1F7
100
AcDbPlotSettings
  1

  2
\\KOMP-NR-72\HP LaserJet 1200 Series PCL
  4
A4
  6

 40
6.805083274841308
 41
5.027085781097412
 42
6.805068969726562
 43
5.027069091796875
 44
209.9733276367187
 45
296.9683227539062
 46
0.0
 47
0.0
 48
0.0
 49
0.0
140
0.0
141
0.0
142
1.0
143
1.0
 70
   688
 72
     1
 73
     0
 74
     5
  7
monochrome_140.ctb
 75
    16
147
1.0
148
0.0
149
0.0
100
AcDbLayout
  1
1Sytuacja
 70
     0
 71
     1
 10
-6.805083274841308
 20
-5.027085781097412
 11
203.1682443618775
 21
291.9412369728089
 12
5931.669543547489
 22
-50.0
 32
10705.17123084718
 14
-0.7937495347798631
 24
-0.7937489321484464
 34
0.0
 15
209.2062504652201
 25
296.2062510678515
 35
0.0
146
0.0
 13
0.0
 23
0.0
 33
0.0
 16
1.0
 26
0.0
 36
0.0
 17
0.0
 27
1.0
 37
0.0
 76
     0
330
1FC
1001
ACAD_PSEXT
1000
\\KOMP-NR-72\HP LaserJet 1200 Series PCL
1000
HP LaserJet 1200 Series PCL
1000
\\KOMP-NR-72
1000

1070
     0
  0
LAYOUT
  5
1F6
102
{ACAD_XDICTIONARY
360
24D
102
}
102
{ACAD_REACTORS
330
1F7
102
}
330
1F7
100
AcDbPlotSettings
  1

  2
\\KOMP-NR-72\HP LaserJet 1200 Series PCL
  4
A4
  6
10-ele
 40
6.805083274841308
 41
5.027085781097412
 42
6.805068969726562
 43
5.027069091796875
 44
209.9733276367187
 45
296.9683227539062
 46
0.0
 47
18.47754343635425
 48
4411.916042839904
 49
-4580.939848749344
140
6834.727584931737
141
-1496.839455138615
142
1.0
143
12.33842107744138
 70
 11956
 72
     1
 73
     0
 74
     4
  7
monochrome_140.ctb
 75
     0
147
0.0810476473224214
148
-4411.916042839904
149
4580.939848749344
100
AcDbLayout
  1
Model
 70
     1
 71
     0
 10
0.0
 20
0.0
 11
12.0
 21
9.0
 12
0.0
 22
0.0
 32
0.0
 14
0.0
 24
0.0
 34
0.0
 15
0.0
 25
0.0
 35
0.0
146
0.0
 13
0.0
 23
0.0
 33
0.0
 16
1.0
 26
0.0
 36
0.0
 17
0.0
 27
1.0
 37
0.0
 76
     0
330
2
331
20F
1001
ACAD_PSEXT
1000
\\KOMP-NR-72\HP LaserJet 1200 Series PCL
1000
HP LaserJet 1200 Series PCL
1000
\\KOMP-NR-72
1000

1070
     0
  0
MATERIAL
  5
220
102
{ACAD_XDICTIONARY
360
252
102
}
102
{ACAD_REACTORS
330
D
102
}
330
D
100
AcDbMaterial
  1
ByBlock
 73
     1
 78
     1
172
     1
176
     1
270
     1
274
     1
  0
MATERIAL
  5
21F
102
{ACAD_XDICTIONARY
360
250
102
}
102
{ACAD_REACTORS
330
D
102
}
330
D
100
AcDbMaterial
  1
ByLayer
 73
     1
 78
     1
172
     1
176
     1
270
     1
274
     1
  0
MATERIAL
  5
C
102
{ACAD_XDICTIONARY
360
24B
102
}
102
{ACAD_REACTORS
330
D
102
}
330
D
100
AcDbMaterial
  1
Global
 73
     1
 78
     1
172
     1
176
     1
270
     1
274
     1
  0
MLINESTYLE
  5
224
102
{ACAD_REACTORS
330
21D
102
}
330
21D
100
AcDbMlineStyle
  2
STANDARD
 70
     0
  3

 62
     0
 51
90.0
 52
90.0
 71
     2
 49
0.5
 62
   256
  6
BYLAYER
 49
-0.5
 62
   256
  6
BYLAYER
  0
ACDBPLACEHOLDER
  5
5A
102
{ACAD_REACTORS
330
A
102
}
330
A
  0
ACDBPLACEHOLDER
  5
9
102
{ACAD_REACTORS
330
A
102
}
330
A
  0
ACDBPLACEHOLDER
  5
59
102
{ACAD_REACTORS
330
A
102
}
330
A
  0
SCALE
  5
229
102
{ACAD_REACTORS
330
222
102
}
330
222
100
AcDbScale
 70
     0
300
1:1
140
1.0
141
0.1
290
     0
  0
SCALE
  5
22A
102
{ACAD_REACTORS
330
222
102
}
330
222
100
AcDbScale
 70
     0
300
1:2
140
1.0
141
0.2
290
     0
  0
SCALE
  5
22B
102
{ACAD_REACTORS
330
222
102
}
330
222
100
AcDbScale
 70
     0
300
1:2.5
140
1.0
141
0.25
290
     0
  0
SCALE
  5
22C
102
{ACAD_REACTORS
330
222
102
}
330
222
100
AcDbScale
 70
     0
300
1:5
140
1.0
141
0.5
290
     0
  0
SCALE
  5
22D
102
{ACAD_REACTORS
330
222
102
}
330
222
100
AcDbScale
 70
     0
300
1:7.5
140
1.0
141
0.75
290
     0
  0
SCALE
  5
22E
102
{ACAD_REACTORS
330
222
102
}
330
222
100
AcDbScale
 70
     0
300
1:10
140
1.0
141
1.0
290
     1
  0
SCALE
  5
22F
102
{ACAD_REACTORS
330
222
102
}
330
222
100
AcDbScale
 70
     0
300
1:20
140
1.0
141
2.0
290
     0
  0
SCALE
  5
230
102
{ACAD_REACTORS
330
222
102
}
330
222
100
AcDbScale
 70
     0
300
1:25
140
1.0
141
2.5
290
     0
  0
SCALE
  5
231
102
{ACAD_REACTORS
330
222
102
}
330
222
100
AcDbScale
 70
     0
300
1:50
140
1.0
141
5.0
290
     0
  0
SCALE
  5
232
102
{ACAD_REACTORS
330
222
102
}
330
222
100
AcDbScale
 70
     0
300
1:75
140
1.0
141
7.5
290
     0
  0
SCALE
  5
233
102
{ACAD_REACTORS
330
222
102
}
330
222
100
AcDbScale
 70
     0
300
1:100
140
1.0
141
10.0
290
     0
  0
SCALE
  5
234
102
{ACAD_REACTORS
330
222
102
}
330
222
100
AcDbScale
 70
     0
300
1:150
140
1.0
141
15.0
290
     0
  0
SCALE
  5
235
102
{ACAD_REACTORS
330
222
102
}
330
222
100
AcDbScale
 70
     0
300
1:200
140
1.0
141
20.0
290
     0
  0
SCALE
  5
236
102
{ACAD_REACTORS
330
222
102
}
330
222
100
AcDbScale
 70
     0
300
1:250
140
1.0
141
25.0
290
     0
  0
SCALE
  5
237
102
{ACAD_REACTORS
330
222
102
}
330
222
100
AcDbScale
 70
     0
300
1:500
140
1.0
141
50.0
290
     0
  0
SCALE
  5
238
102
{ACAD_REACTORS
330
222
102
}
330
222
100
AcDbScale
 70
     0
300
1:750
140
1.0
141
75.0
290
     0
  0
SCALE
  5
239
102
{ACAD_REACTORS
330
222
102
}
330
222
100
AcDbScale
 70
     0
300
1:1000
140
1.0
141
100.0
290
     0
  0
SCALE
  5
23A
102
{ACAD_REACTORS
330
222
102
}
330
222
100
AcDbScale
 70
     0
300
1:1250
140
1.0
141
125.0
290
     0
  0
SCALE
  5
23B
102
{ACAD_REACTORS
330
222
102
}
330
222
100
AcDbScale
 70
     0
300
1:2000
140
1.0
141
200.0
290
     0
  0
SCALE
  5
23C
102
{ACAD_REACTORS
330
222
102
}
330
222
100
AcDbScale
 70
     0
300
1:2500
140
1.0
141
250.0
290
     0
  0
SCALE
  5
23D
102
{ACAD_REACTORS
330
222
102
}
330
222
100
AcDbScale
 70
     0
300
1:5000
140
1.0
141
500.0
290
     0
  0
TABLESTYLE
  5
225
102
{ACAD_XDICTIONARY
360
226
102
}
102
{ACAD_REACTORS
330
223
102
}
330
223
100
AcDbTableStyle
  3
Standard
 70
     0
 71
     0
 40
0.06
 41
0.06
280
     0
281
     0
  7
STANDARD
140
0.18
170
     2
 62
     0
 63
     7
283
     0
274
    -2
284
     1
 64
     0
275
    -2
285
     1
 65
     0
276
    -2
286
     1
 66
     0
277
    -2
287
     1
 67
     0
278
    -2
288
     1
 68
     0
279
    -2
289
     1
 69
     0
  7
STANDARD
140
0.25
170
     5
 62
     0
 63
     7
283
     0
274
    -2
284
     1
 64
     0
275
    -2
285
     1
 65
     0
276
    -2
286
     1
 66
     0
277
    -2
287
     1
 67
     0
278
    -2
288
     1
 68
     0
279
    -2
289
     1
 69
     0
  7
STANDARD
140
0.18
170
     5
 62
     0
 63
     7
283
     0
274
    -2
284
     1
 64
     0
275
    -2
285
     1
 65
     0
276
    -2
286
     1
 66
     0
277
    -2
287
     1
 67
     0
278
    -2
288
     1
 68
     0
279
    -2
289
     1
 69
     0
  0
VISUALSTYLE
  5
1F9
102
{ACAD_REACTORS
330
1FA
102
}
330
1FA
100
AcDbVisualStyle
  2
2dWireframe
 70
     4
 71
     0
 72
     2
 73
     0
 90
        0
 40
-0.6
 41
-30.0
 62
     5
 63
     7
 74
     1
 91
        4
 64
     7
 65
   257
 75
     1
175
     1
 42
1.0
 92
        0
 66
   257
 43
1.0
 76
     1
 77
     6
 78
     2
 67
     7
 79
     5
170
     0
171
     0
290
     0
174
     0
 93
        1
 44
0.0
173
     0
291
     0
 45
0.0
1001
ACAD
1000
AcDbSavedByObjectVersion
1070
     0
  0
VISUALSTYLE
  5
228
102
{ACAD_REACTORS
330
1FA
102
}
330
1FA
100
AcDbVisualStyle
  2
3dWireframe
 70
     5
 71
     0
 72
     2
 73
     0
 90
        0
 40
-0.6
 41
-30.0
 62
     5
 63
     7
 74
     1
 91
        4
 64
     7
 65
   257
 75
     1
175
     1
 42
1.0
 92
        0
 66
   257
 43
1.0
 76
     1
 77
     6
 78
     2
 67
     7
 79
     5
170
     0
171
     0
290
     0
174
     0
 93
        1
 44
0.0
173
     0
291
     0
 45
0.0
1001
ACAD
1000
AcDbSavedByObjectVersion
1070
     0
  0
VISUALSTYLE
  5
227
102
{ACAD_REACTORS
330
1FA
102
}
330
1FA
100
AcDbVisualStyle
  2
Realistic
 70
     8
 71
     2
 72
     2
 73
     0
 90
        0
 40
-0.6
 41
-30.0
 62
     5
 63
     7
 74
     1
 91
        0
 64
     7
 65
   257
 75
     1
175
     1
 42
1.0
 92
        8
 66
     8
 43
1.0
 76
     1
 77
     6
 78
     2
 67
     7
 79
     5
170
     0
171
     0
290
     0
174
     0
 93
       13
 44
0.0
173
     0
291
     0
 45
0.0
1001
ACAD
1000
AcDbSavedByObjectVersion
1070
     0
  0
DICTIONARYVAR
  5
243
102
{ACAD_REACTORS
330
240
102
}
330
240
100
DictionaryVariables
280
     0
  1
1:1
  0
DICTIONARYVAR
  5
242
102
{ACAD_REACTORS
330
240
102
}
330
240
100
DictionaryVariables
280
     0
  1
STANDARD
  0
DICTIONARYVAR
  5
241
102
{ACAD_REACTORS
330
240
102
}
330
240
100
DictionaryVariables
280
     0
  1
STANDARD
  0
DICTIONARYVAR
  5
247
102
{ACAD_REACTORS
330
240
102
}
330
240
100
DictionaryVariables
280
     0
  1
1
  0
DICTIONARYVAR
  5
246
102
{ACAD_REACTORS
330
240
102
}
330
240
100
DictionaryVariables
280
     0
  1
1
  0
DICTIONARYVAR
  5
245
102
{ACAD_REACTORS
330
240
102
}
330
240
100
DictionaryVariables
280
     0
  1
0
  0
DICTIONARYVAR
  5
244
102
{ACAD_REACTORS
330
240
102
}
330
240
100
DictionaryVariables
280
     0
  1
127
  0
DICTIONARY
  5
200
330
1FF
100
AcDbDictionary
280
     1
281
     1
  3
ACAD_XREC_ROUNDTRIP
360
24F
  3
ADSK_XREC_LAYOUTTHUMBNAIL
360
201
  0
DICTIONARY
  5
24D
330
1F6
100
AcDbDictionary
280
     1
281
     1
  3
ACAD_XREC_ROUNDTRIP
360
24E
  0
DICTIONARY
  5
252
330
220
100
AcDbDictionary
280
     1
281
     1
  3
ACAD_XREC_ROUNDTRIP
360
253
  0
DICTIONARY
  5
250
330
21F
100
AcDbDictionary
280
     1
281
     1
  3
ACAD_XREC_ROUNDTRIP
360
251
  0
DICTIONARY
  5
24B
330
C
100
AcDbDictionary
280
     1
281
     1
  3
ACAD_XREC_ROUNDTRIP
360
24C
  0
DICTIONARY
  5
226
330
225
100
AcDbDictionary
280
     1
281
     1
  3
ACAD_ROUNDTRIP_2008_TABLESTYLE_CELLSTYLEMAP
360
248
  3
ACAD_XREC_ROUNDTRIP
360
254
  0
XRECORD
  5
24F
102
{ACAD_REACTORS
330
200
102
}
330
200
100
AcDbXrecord
280
     1
102
SHADEPLOT
 70
     1
102
SHADEPLOTRESLEVEL
 70
     4
102
SHADEPLOTCUSTOMDPI
 70
   600
  0
XRECORD
  5
201
102
{ACAD_REACTORS
330
200
102
}
330
200
100
AcDbXrecord
280
     1
310
28000000620000008C0000000100080000000000B036000000000000000000000001000000000000FFFFFF0000000000F0FBFF000000000000000000000000000000000000000000000000000000000000000000330000006600000099000000CC000000FF00000000330000333300006633000099330000CC330000FF3300
310
0000660000336600006666000099660000CC660000FF66000000990000339900006699000099990000CC990000FF99000000CC000033CC000066CC000099CC0000CCCC0000FFCC000000FF000033FF000066FF000099FF0000CCFF0000FFFF000000003300330033006600330099003300CC003300FF003300003333003333
310
33006633330099333300CC333300FF33330000663300336633006666330099663300CC663300FF66330000993300339933006699330099993300CC993300FF99330000CC330033CC330066CC330099CC3300CCCC3300FFCC330000FF330033FF330066FF330099FF3300CCFF3300FFFF330000006600330066006600660099
310
006600CC006600FF00660000336600333366006633660099336600CC336600FF33660000666600336666006666660099666600CC666600FF66660000996600339966006699660099996600CC996600FF99660000CC660033CC660066CC660099CC6600CCCC6600FFCC660000FF660033FF660066FF660099FF6600CCFF6600
310
FFFF660000009900330099006600990099009900CC009900FF00990000339900333399006633990099339900CC339900FF33990000669900336699006666990099669900CC669900FF66990000999900339999006699990099999900CC999900FF99990000CC990033CC990066CC990099CC9900CCCC9900FFCC990000FF99
310
0033FF990066FF990099FF9900CCFF9900FFFF99000000CC003300CC006600CC009900CC00CC00CC00FF00CC000033CC003333CC006633CC009933CC00CC33CC00FF33CC000066CC003366CC006666CC009966CC00CC66CC00FF66CC000099CC003399CC006699CC009999CC00CC99CC00FF99CC0000CCCC0033CCCC0066CC
310
CC0099CCCC00CCCCCC00FFCCCC0000FFCC0033FFCC0066FFCC0099FFCC00CCFFCC00FFFFCC000000FF003300FF006600FF009900FF00CC00FF00FF00FF000033FF003333FF006633FF009933FF00CC33FF00FF33FF000066FF003366FF006666FF009966FF00CC66FF00FF66FF000099FF003399FF006699FF009999FF00CC
310
99FF00FF99FF0000CCFF0033CCFF0066CCFF0099CCFF00CCCCFF00FFCCFF0000FFFF0033FFFF0066FFFF0099FFFF00CCFFFF00FFFFFF00000000000D0D0D001A1A1A00282828003535350043434300505050005D5D5D006B6B6B00787878008686860093939300A1A1A100AEAEAE00BBBBBB00C9C9C900D6D6D600E4E4E400
310
F1F1F100FFFFFF0000000000000000000000000000000000000000000000000000000000000000000000000000000000E2E2E2E2E2E2E2E2E2E2E2E2E2E2E2E2E2E2E2E2E2E2E2E2E2E2E2E2E2E2E2E2E2E2E2E2E2E2E2E2E2E2E2E2E2E2E2E2E2E2E2E2E2E2E2E2E2E2E2E2E2E2E2E2E2E2E2E2E2E2E2E2E2E2E2E2E2E2E2
310
E2E2E2E2E2E2E2E2E2E2E2E2E2E2E2E2E2E2E20533E2F5F5F5F5F5F5F5F5F5F5F5F5F5F5F5F5F5F5F5F5F5F5F5F5F5F5F5F5F5F5F5F5F5F5F5F5F5F5F5F5F5F5F5F5F5F5F5F5F5F5F5F5F5F5F5F5F5F5F5F5F5F5F5F5F5F5F5F5F5F5F5F5F5F5F5F5F5F5F5F5F5F5F5F5F5F5F5F5F5F5F5F5F5F5F5F5E20000E2F5F5E9E9E9
310
E9E9E9E9E9E9E9E9E9E9E9E9E9E9E9E9E9E9E9E9E9E9E9E9E9E9E9E9E9E9E9E9E9E9E9E9E9E9E9E9E9E9E9E9E9E9E9E9E9E9E9E9E9E9E9E9E9E9E9E9E9E9E9E9E9E9E9E9E9E9E9E9E9E9E9E9E9E9E9E9E9E9E9E9E9E9E9E9E9E9E9E90000E2F5F5E9E2E2E2E2E2E2E2F5F5F5F5F5F5F5F5E2E2E2E2E2E2E2E2E2E2E2E2E2E2
310
E2F5F5F5F5F5F5F5F5E2E2E2E2E2E2E2E2E2E2E2E2E2E2F5F5F5F5F5F5F5F5E2E2E2E2E2E2E2E2E2E2E2E2E2E2E2F5F5F5F5F5F5F5F5E2E2E2E2E2E2E2E2F5F5E2F70BE2F5F5E9F5F5F5F5F5F5F5F5F5F5F5F5F5F5F5F5F5F5F5F5F5F5F5F5F5F5F5F5F5F5F5F5F5F5F5F5F5F5F5F5F5F5F5F5F5F5F5F5F5F5F5F5F5F5F5F5
310
F5F5F5F5F5F5F5F5F5F5F5F5F5F5F5F5F5F5F5F5F5F5F5F5F5F5F5F5F5F5F5F5F5F5E2F5F5E20833E2F5F5E9F5F5F5F5F5F5F5F5F5F5F5F5F5F5F5F5F5F5F5F5F5F5F5F5F5F5F5F5F5F5F5F5F5F5F5F5F5F5F5F5F5F5F5F5F5F5F5F5F5F5F5F5F5F5F5F5F5F5F5F5F5F5F5F5F5F5F5F5F5F5F5F5F5F5F5F5F5F5F5F5F5F5F5
310
F5F5F5F5F5F5F5E2F5F5E20000E2F5F5E9F5F5F5F5F5F5F5F5F5F5F5F5F5F5F5F5F5F5F5F5F5F5F5F5F5F5F5F5F5F5F5F5F5F5F5F5F5F5F5F5F5F5F5F5F5F5F5F5F5F5F5F5F5F5F5F5F5F5F5F5F5F5F5F5F5F5F5F5F5F5F5F5F5F5F5F5F5F5F5F5F5F5F5F5F5F5F5F5F5F5E2F5F5E20000E2F5F5E9F5F5F5F5E9E9E9E9E9E9
310
E9E9E9E9E9E9E9E9E9E9E9E9E9E9E9E9E9E9E9E9E9E9E9E9E9E9E9E9E9E9E9E9E9E9E9E9E9E9E9E9E9E9E9E9E9E9E9E9E9E9E9E9E9E9E9E9E9E9E9E9E9E9E9E9E9E9E9E9E9E9E9E9E9E9E9E9E9E9E9E9E9E9F5E2F60BE2F5F5E9F5F5F5F5E9F5F5E9F5F5F5F5F5F5F5F5F5F5F5F5F5F5F5F5F5F5F5F5F5F5F5F5F5F5F5F5F5
310
F5F5F5F5F5F5F5F5F5F5F5F5F5F5F5F5F5F5F5F5F5F5F5F5F5F5F5F5F5F5F5F5F5F5F5F5F5F5F5F5F5F5F5E9F5F5F5F5F5F5F5F5F5E2E9F5E20000E2F5F5E9F5F5F5F5E9F5F5E9F5F5F5F5F5F5F5F5F5F5F5F5F5F5F5F5F5F5F5F5F5F5F5F5F5F5F5F5F5F5F5F5F5F5F5F5F5F5F5F5F5F5F5F5F5F5F5F5F5F5F5F5F5F5F5F5
310
F5F5F5F5F5F5F5F5F5F5F5F5F5F5F5F5E9F5F5F5F5F5F5F5F5F5E2E9F5E28D7EE2F5F5E9F5F5F5F5E9F5F5E9F5F5F5F5F5F5F5F5F5F5F5F5F5F5F5F5F5F5F5F5F5F5F5F5F5F5F5F5F5F5F5F5F5F5F5F5F5F5F5F5F5F5F5F5F5F5F5F5F5F5F5F5F5F5F5F5F5F5F5F5F5F5F5F5F5F5F5F5F5F5F5F5E9F5F5F5F5F5F5F5F5F5E2
310
E9F5E2857EE2F5F5E9F5F5F5F5E9F5F5E9F5F5F5F5F5F5F5F5F5F5F5F5F5F5F5F5F5F5F5F5F5F5F5F5F5F5F5F5F5F5F5F5F5F5F5F5F5F5F5F5F5F5F5F5F5F5F5F5F5F5F5F5F5F5F5F5F5F5F5F5F5F5F5F5F5F5F5F5F5F5F5F5E9F5F5F5F5F5F5F5F5F5E2E9F5E20000E2F5F5E9F5F5F5F5E9F5F5E9F5F5F5F5F5F5F5F5F5F5
310
F5F5F5F5F5F5F5F5F5F5F5F5F5F5F5F5F5F5F5F5F5F5F5F5F5F5F5F5F5F5F5F5F5F5F5F5F5F5F5F5F5F5F5F5F5F5F5F5F5F5F5F5F5F5F5F5F5F5F5F5F5F5E9F5F5F5F5F5F5F5F5F5F5E9F5E2CDCDE2F5F5E9F5F5F5F5E9F5F5E9F5F5F5F5F5F5F5F5F5F5F5F5F5F5F5F5F5F5F5F5F5F5F5F5F5F5F5F5F5F5F5F5F5F5F5F5F5
310
F5F5F5F5F5F5F5F5F5F5F5F5F5F5F5F5F5F5F5F5F5F5F5F5F5F5F5F5F5F5F5F5F5F5F5E9F5F5F5F5F5F5F5F5F5F5E9F5E20000E2F5F5E9F5F5F5F5E9F5F5E9F5F5F5F5F5F5F5F5F5F5F5F5F5F5F5F5F5F5F5F5F5F5F5F5F5F5F5F5F5F5F5F5F5F5F5F5F5F5F5F5F5F5F5F5F5F5F5F5F5F5F5F5F5F5F5F5F5F5F5F5F5F5F5F5
310
F5F5F5F5F5F5F5F5E9F5F5F5F5F5F5F5F5F5F5E9F5E2CDCDE2F5F5E9F5F5F5F5E9F5F5E9F5F5F5F5F5F5F5F5F5F5F5F5F5F5F5F5F5F5F5F5F5F5F5F5F5F5F5F5F5F5F5F5F5F5F5F5F5F5F5F5F5F5F5F5F5F5F5F5F5F5F5F5F5F5F5F5F5F5F5F5F5F5F5F5F5F5F5F5F5F5F5F5E9F5F5F5F5F5F5F5F5F5F5E9F5E20000E2F5F5
310
E9F5F5F5F5E9F5F5E9F5F5F5F5F5F5F5F5F5F5F5F5F5F5F5F5F5F5F5F5F5F5F5F5F5F5F5F5F5F5F5F5F5F5F5F5F5F5F5F5F5F5F5F5F5F5F5F5F5F5F5F5F5F5F5F5F5F5F5F5F5F5F5F5F5F5F5F5F5F5F5F5E9F5F5F5F5F5F5F5F5F5F5E9F5E2CDCDE2F5F5E9F5F5F5F5E9F5F5E9F5F5F5F5F5F5F5F5F5F5F5F5F5F5F5F5F5F5
310
F5F5F5F5F5F5F5F5F5F5F5F5F5F5F5F5F5F5F5F5F5F5F5F5F5F5F5F5F5F5F5F5F5F5F5F5F5F5F5F5F5F5F5F5F5F5F5F5F5F5F5F5F5F5E9F5F5F5F5F5F5F5F5F5F5E9F5E20000E2F5F5E9F5F5F5F5E9F5F5E9F5F5F5F5F5F5F5F5F5F5F5F5F5F5F5F5F5F5F5F5F5F5F5F5F5F5F5F5F5F5F5F5F5F5F5F5F5F5F5F5F5F5F5F5F5
310
F5F5F5F5F5F5F5F5F5F5F5F5F5F5F5F5F5F5F5F5F5F5F5F5F5F5F5E9F5F5F5F5F5F5F5F5F5F5E9F5E2CDCDE2F5F5E9F5F5F5F5E9F5F5E9F5F5F5F5F5F5F5F5F5F5F5F5F5F5F5F5F5F5F5F5F5F5F5F5F5F5F5F5F5F5F5F5F5F5F5F5F5F5F5F5F5F5F5F5F5F5F5F5F5F5F5F5F5F5F5F5F5F5F5F5F5F5F5F5F5F5F5F5F5F5F5F5
310
E9F5F5F5F5F5F5F5F5F5F5E9F5E20000E2F5F5E9F5F5F5F5E9F5F5E9F5F5F5F5F5F5F5F5F5F5F5F5F5F5F5F5F5F5F5F5F5F5F5F5F5F5F5F5F5F5F5F5F5F5F5F5F5F5F5F5F5F5F5F5F5F5F5F5F5F5F5F5F5F5F5F5F5F5F5F5F5F5F5F5F5F5F5F5F5F5F5F5E9F5F5F5F5F5F5F5F5F5F5E9F5E2CDCDE2F5F5E9F5F5F5F5E9F5F5
310
E9F5F5F5F5F5F5F5F5F5F5F5F5F5F5F5F5F5F5F5F5F5F5F5F5F5F5F5F5F5F5F5F5F5F5F5F5F5F5F5F5F5F5F5F5F5F5F5F5F5F5F5F5F5F5F5F5F5F5F5F5F5F5F5F5F5F5F5F5F5F5F5F5E9F5F5F5F5F5F5F5F5F5E2E9F5E20000E2F5F5E9F5F5F5F5E9F5F5E9F5F5F5F5F5F5F5F5F5F5F5F5F5F5F5F5F5F5F5F5F5F5F5F5F5F5
310
F5F5F5F5F5F5F5F5F5F5F5F5F5F5F5F5F5F5F5F5F5F5F5F5F5F5F5F5F5F5F5F5F5F5F5F5F5F5F5F5F5F5F5F5F5F5E9F5F5F5F5F5F5F5F5F5E2E9F5E2CDCDE2F5F5E9F5F5F5F5E9F5F5E9F5F5F5F5F5F5F5F5F5F5F5F5F5F5F5F5F5F5F5F5F5F5F5F5F5F5F5F5F5F5F5F5F5F5F5F5F5F5F5F5F5F5F5F5F5F5F5F5F5F5F5F5F5
310
F5F5F5F5F5F5F5F5F5F5F5F5F5F5F5F5F5F5F5E9F5F5F5F5F5F5F5F5F5E2E9F5E20000E2F5F5E9F5F5F5F5E9F5F5E9F5F5F5F5F5F5F5F5F5F5F5F5F5F5F5F5F5F5F5F5F5F5F5F5F5F5F5F5F5F5F5F5F5F5F5F5F5F5F5F5F5F5F5F5F5F5F5F5F5F5F5F5F5F5F5F5F5F5F5F5F5F5F5F5F5F5F5F5F5F5F5F5E9F5F5F5F5F5F5F5
310
F5F5E2E9F5E2CDCDE2F5F5E9F5F5F5F5E9F5F5E9F5F5F5F5F5F5F5F5F5F5F5F5F5F5F5F5F5F5F5F5F5F5F5F5F5F5F5F5F5F5F5F5F5F5F5F5F5F5F5F5F5F5F5F5F5F5F5F5F5F5F5F5F5F5F5F5F5F5F5F5F5F5F5F5F5F5F5F5F5F5F5F5E9F5F5F5F5F5F5F5F5F5E2E9F5E20000E2F5F5E9F5F5F5F5E9F5F5E9F5F5F5F5F5F5F5
310
F5F5F5F5F5F5F5F5F5F5F5F5F5F5F5F5F5F5F5F5F5F5F5F5F5F5F5F5F5F5F5F5F5F5F5F5F5F5F5F5F5F5F5F5F5F5F5F5F5F5F5F5F5F5F5F5F5F5F5F5F5F5F5F5F5E9F5F5F5F5F5F5F5F5F5E2E9F5E2CDCDE2F5F5E9F5F5F5F5E9F5F5E9F5F5F5F5F5F5F5F5F5F5F5F5F5F5F5F5F5F5F5F5F5F5F5F5F5F5F5F5F5F5F5F5F5F5
310
F5F5F5F5F5F5F5F5F5F5F5F5F5F5F5F5F5F5F5F5F5F5F5F5F5F5F5F5F5F5F5F5F5F5F5F5F5F5E9F5F5F5F5F5F5F5F5F5E2E9F5E20000E2F5F5E9F5F5F5F5E9F5F5E9F5F5F5F5F5F5F5F5F5F5F5F5F5F5F5F5F5F5F5F5F5F5F5F5F5F5F5F5F5F5F5F5F5F5F5F5F5F5F5F5F5F5F5F5F5F5F5F5F5F5F5F5F5F5F5F5F5F5F5F5F5
310
F5F5F5F5F5F5F5F5F5F5F5E9F5F5F5F5F5F5F5F5F5E2E9F5E2CDCDE2F5F5E9F5F5F5F5E9F5F5E9F5F5F5F5F5F5F5F5F5F5F5F5F5F5F5F5F5F5F5F5F5F5F5F5F5F5F5F5F5F5F5F5F5F5F5F5F5F5F5F5F5F5F5F5F5F5F5F5F5F5F5F5F5F5F5F5F5F5F5F5F5F5F5F5F5F5F5F5F5F5F5F5E9F5F5F5F5F5F5F5F5F5E2E9F5E20000
310
E2F5F5E9F5F5F5F5E9F5F5E9F5F5F5F5F5F5F5F5F5F5F5F5F5F5F5F5F5F5F5F5F5F5F5F5F5F5F5F5F5F5F5F5F5F5F5F5F5F5F5F5F5F5F5F5F5F5F5F5F5F5F5F5F5F5F5F5F5F5F5F5F5F5F5F5F5F5F5F5F5F5F5F5E9F5F5F5F5F5F5F5F5F5E2E9F5E2CDCDE2F5F5E9F5F5F5F5E9F5F5E9F5F5F5F5F5F5F5F5F5F5F5F5F5F5F5
310
F5F5F5F5F5F5F5F5F5F5F5F5F5F5F5F5F5F5F5F5F5F5F5F5F5F5F5F5F5F5F5F5F5F5F5F5F5F5F5F5F5F5F5F5F5F5F5F5F5F5F5F5F5F5F5F5F5E9F5F5F5F5F5F5F5F5F5E2E9F5E20000E2F5F5E9F5F5F5F5E9F5F5E9F5F5F5F5F5F5F5F5F5F5F5F5F5F5F5F5F5F5F5F5F5F5F5F5F5F5F5F5F5F5F5F5F5F5F5F5F5F5F5F5F5F5
310
F5F5F5F5F5F5F5F5F5F5F5F5F5F5F5F5F5F5F5F5F5F5F5F5F5F5F5F5F5F5E9F5F5F5F5F5F5F5F5F5E2E9F5E2CDCDE2F5F5E9F5F5F5F5E9F5F5E9F5F5F5F5F5F5F5F5F5F5F5F5F5F5F5F5F5F5F5F5F5F5F5F5F5F5F5F5F5F5F5F5F5F5F5F5F5F5F5F5F5F5F5F5F5F5F5F5F5F5F5F5F5F5F5F5F5F5F5F5F5F5F5F5F5F5F5F5F5
310
F5F5F5E9F5F5F5F5F5F5F5F5F5E2E9F5E20000E2F5F5E9F5F5F5F5E9F5F5E9F5F5F5F5F5F5F5F5F5F5F5F5F5F5F5F5F5F5F5F5F5F5F5F5F5F5F5F5F5F5F5F5F5F5F5F5F5F5F5F5F5F5F5F5F5F5F5F5F5F5F5F5F5F5F5F5F5F5F5F5F5F5F5F5F5F5F5F5F5F5F5F5E9F5F5F5F5F5F5F5F5F5E2E9F5E22401E2F5F5E9F5F5F5F5
310
E9F5F5E9F5F5F5F5F5F5F5F5F5F5F5F5F5F5F5F5F5F5F5F5F5F5F5F5F5F5F5F5F5F5F5F5F5F5F5F5F5F5F5F5F5F5F5F5F5F5F5F5F5F5F5F5F5F5F5F5F5F5F5F5F5F5F5F5F5F5F5F5F5F5F5F5E9F5F5F5F5F5F5F5F5F5E2E9F5E20000E2F5F5E9F5F5F5F5E9F5F5E9F5F5F5F5F5F5F5F5F5F5F5F5F5F5F5F5F5F5F5F5F5F5F5
310
F5F5F5F5F5F5F5F5F5F5F5F5F5F5F5F5F5F5F5F5F5F5F5F5F5F5F5F5F5F5F5F5F5F5F5F5F5F5F5F5F5F5F5F5F5F5F5F5F5E9F5F5F5F5F5F5F5F5F5E2E9F5E2CDCDE2F5F5E9F5F5F5F5E9F5F5E9F5F5F5F5F5F5F5F5F5F5F5F5F5F5F5F5F5F5F5F5F5F5F5F5F5F5F5F5F5F5F5F5F5F5F5F5F5F5F5F5F5F5F5F5F5F5F5F5F5F5
310
F5F5F5F5F5F5F5F5F5F5F5F5F5F5F5F5F5F5F5F5F5F5E9F5F5F5F5F5F5F5F5F5E2E9F5E20000E2F5F5E9F5F5F5F5E9F5F5E9F5F5F5F5F5F5F5F5F5F5F5F5F5F5F5F5F5F5F5F5F5F5F5F5F5F5F5F5F5F5F5F5F5F5F5F5F5F5F5F5F5F5F5F5F5F5F5F5F5F5F5F5F5F5F5F5F5F5F5F5F5F5F5F5F5F5F5F5F5F5F5F5E9F5F5F5F5
310
F5F5F5F5F5F5E9F5E2CDCDE2F5F5E9F5F5F5F5E9F5F5E9F5F5F5F5F5F5F5F5F5F5F5F5F5F5F5F5F5F5F5F5F5F5F5F5F5F5F5F5F5F5F5F5F5F5F5F5F5F5F5F5F5F5F5F5F5F5F5F5F5F5F5F5F5F5F5F5F5F5F5F5F5F5F5F5F5F5F5F5F5F5F5F5E9F5F5F5F5F5F5F5F5F5F5E9F5E20000E2F5F5E9F5F5F5F5E9F5F5E9F5F5F5F5
310
F5F5F5F5F5F5F5F5F5F5F5F5F5F5F5F5F5F5F5F5F5F5F5F5F5F5F5F5F5F5F5F5F5F5F5F5F5F5F5F5F5F5F5F5F5F5F5F5F5F5F5F5F5F5F5F5F5F5F5F5F5F5F5F5F5F5F5F5E9F5F5F5F5F5F5F5F5F5F5E9F5E2CDCDE2F5F5E9F5F5F5F5E9F5F5E9F5F5F5F5F5F5F5F5F5F5F5F5F5F5F5F5F5F5F5F5F5F5F5F5F5F5F5F5F5F5F5
310
F5F5F5F5F5F5F5F5F5F5F5F5F5F5F5F5F5F5F5F5F5F5F5F5F5F5F5F5F5F5F5F5F5F5F5F5F5F5F5F5F5E9F5F5F5F5F5F5F5F5F5F5E9F5E20000E2F5F5E9F5F5F5F5E9F5F5E9F5F5F5F5F5F5F5F5F5F5F5F5F5F5F5F5F5F5F5F5F5F5F5F5F5F5F5F5F5F5F5F5F5F5F5F5F5F5F5F5F5F5F5F5F5F5F5F5F5F5F5F5F5F5F5F5F5F5
310
F5F5F5F5F5F5F5F5F5F5F5F5F5F5E9F5F5F5F5F5F5F5F5F5F5E9F5E2CDCDE2F5F5E9F5F5F5F5E9F5F5E9F5F5F5F5F5F5F5F5F5F5F5F5F5F5F5F5F5F5F5F5F5F5F5F5F5F5F5F5F5F5F5F5F5F5F5F5F5F5F5F5F5F5F5F5F5F5F5F5F5F5F5F5F5F5F5F5F5F5F5F5F5F5F5F5F5F5F5F5F5F5F5F5E9F5F5F5F5F5F5F5F5F5F5E9F5
310
E20000E2F5F5E9F5F5F5F5E9F5F5E9F5F5F5F5F5F5F5F5F5F5F5F5F5F5F5F5F5F5F5F5F5F5F5F5F5F5F5F5F5F5F5F5F5F5F5F5F5F5F5F5F5F5F5F5F5F5F5F5F5F5F5F5F5F5F5F5F5F5F5F5F5F5F5F5F5F5F5F5F5F5F5F5E9F5F5F5F5F5F5F5F5F5F5E9F5E2CDCDE2F5F5E9F5F5F5F5E9F5F5E9F5F5F5F5F5F5F5F5F5F5F5F5
310
F5F5F5F5F5F5F5F5F5F5F5F5F5F5F5F5F5F5F5F5F5F5F5F5F5F5F5F5F5F5F5F5F5F5F5F5F5F5F5F5F5F5F5F5F5F5F5F5F5F5F5F5F5F5F5F5F5F5F5F5E9F5F5F5F5F5F5F5F5F5F5E9F5E20000E2F5F5E9F5F5F5F5E9F5F5E9F5F5F5F5F5F5F5F5F5F5F5F5F5F5F5F5F5F5F5F5F5F5F5F5F5F5F5F5F5F5F5F5F5F5F5F5F5F5F5
310
F5F5F5F5F5F5F5F5F5F5F5F5F5F5F5F5F5F5F5F5F5F5F5F5F5F5F5F5F5F5F5F5F5E9F5F5F5F5F5F5F5F5F5F5E9F5E2CDCDE2F5F5E9F5F5F5F5E9F5F5E9E9E9E9E9E9E9E9E9E9E9E9E9E9E9E9E9E9E9E9E9E9E9E9E9E9E9E9E9E9E9E9E9E9E9E9E9E9E9E9E9E9E9E9E9E9E9E9E9E9E9E9E9E9E9E9E9E9E9E9E9E9E9E9E9E9E9
310
E9E9E9E9E9E9E9F5F5F5F5F5F5F5F5F5F5E9F5E20000E2F5F5E9F5F5F5F5E9F5F5F5F5F5F5F5F5F5F5F5F5F5F5F5F5F5F5F5F5F5F5E9E9E9E9E9E9E9E9E9E9E9E9E9E9E9E9E9E9E9E9E9E9E9E9E9E9E9E9E9E9E9E9E9E9E9E9E9E9E9E9E9E9E9F5F5F5F5F5F5F5F5F5F5F5F5F5F5F5F5F5F5F5F5E2E9F5E2CDCDE2F5F5E9F5
310
F5F5F5E9F5F5F5F5F5F5F5F5F5F5F5F5F5F5F5F5F5F5F5F5F5F5E9F5F5F5E2F5F5F5F5F5F5F5F5F5F5F5F5F5F5F5F5F5F5F5F5F5F5F5F5F5F5F5F5F5F5F5F5F5F5F5F5F5E9F5F5F5F5F5F5F5F5F5F5F5F5F5F5F5F5F5F5F5F5E2E9F5E20000E2F5F5E9F5F5F5F5E9F5F5F5F5F5F5F5F5F5F5F5F5F5F5F5F5F5F5F5F5F5F5E9
310
F5F5F5E2F5F5F5F5F5F5F5F5F5F5F5F5F5F5F5F5F5F5F5F5F5F5F5F5F5F5F5F5F5F5F5F5F5F5F5F5F5E9F5F5F5F5F5F5F5F5F5F5F5F5F5F5F5F5F5F5F5F5E2E9F5E2CDCDE2F5F5E9F5F5F5F5E9F5F5F5F5F5F5F5F5F5F5F5F5F5F5F5F5F5F5F5F5F5F5E9F5F5F5E2F5F5F5F5F5F5F5F5F5F5F5F5F5F5F5F5F5F5F5F5F5F5F5
310
F5F5F5F5F5F5F5F5F5F5F5F5F5F5E9F5F5F5F5F5F5F5F5F5F5F5F5F5F5F5F5F5F5F5F5E2E9F5E20000E2F5F5E9F5F5F5F5E9F5F5F5F5F5F5F5F5F5F5F5F5F5F5F5F5F5F5F5F5F5F5E9F5F5F5E2F5F5F5F5F5F5F5F5F5F5F5F5F5F5F5F5F5F5F5F5F5F5F5F5F5F5F5F5F5F5F5F5F5F5F5F5F5E9F5F5F5F5F5F5F5F5F5F5F5F5
310
F5F5F5F5F5F5F5F5E2E9F5E2CDCDE2F5F5E9F5F5F5F5E9F5F5F5F5F5F5F5F5F5F5F5F5F5F5F5F5F5F5F5F5F5F5E9F5F5F5E2F5F5F5F5F5F5F5F5F5F5F5F5F5F5F5F5F5F5F5F5F5F5F5F5F5F5F5F5F5F5F5F5F5F5F5F5F5E9F5F5F5F5F5F5F5F5F5F5F5F5F5F5F5F5F5F5F5F5E2E9F5E20000E2F5F5E9F5F5F5F5E9F5F5F5F5
310
F5F5F5F5F5F5F5F5F5F5F5F5F5F5F5F5F5F5E9F5F5F5E2F5F5F5F5F5F5F5F5F5F5F5F5F5F5F5F5F5F5F5F5F5F5F5F5F5F5F5F5F5F5F5F5F5F5F5F5F5E9F5F5F5F5F5F5F5F5F5F5F5F5F5F5F5F5F5F5F5F5E2E9F5E2CDCDE2F5F5E9F5F5F5F5E9F5F5F5F5F5F5F5F5F5F5F5F5F5F5F5F5F5F5F5F5F5F5E9F5F5F5E2F5F5F5F5
310
F5F5F5F5F5F5F5F5F5F5F5F5F5F5F5F5F5F5F5F5F5F5F5F5F5F5F5F5F5F5F5F5F5E9F5F5F5F5F5F5F5F5F5F5F5F5F5F5F5F5F5F5F5F5E2E9F5E2A921E2F5F5E9F5F5F5F5E9F5F5F5F5F5F5F5F5F5F5F5F5F5F5F5F5F5F5F5F5F5F5E9F5F5F5E2F5F5F5F5F5F5F5F5F5F5F5F5F5F5F5F5F5F5F5F5F5F5F5F5F5F5F5F5F5F5F5
310
F5F5F5F5F5F5E9F5F5F5F5F5F5F5F5F5F5F5F5F5F5F5F5F5F5F5F5E2E9F5E2CDCDE2F5F5E9F5F5F5F5E9F5F5F5F5F5F5F5F5F5F5F5F5F5F5F5F5F5F5F5F5F5F5E9F5F5F5E2F5F5F5F5F5F5F5F5F5F5F5F5F5F5F5F5F5F5F5F5F5F5F5F5F5F5F5F5F5F5F5F5F5F5F5F5F5E9F5F5F5F5F5F5F5F5F5F5F5F5F5F5F5F5F5F5F5F5
310
E2E9F5E20000E2F5F5E9F5F5F5F5E9F5F5F5F5F5F5F5F5F5F5F5F5F5F5F5F5F5F5F5F5F5F5E9F5F5F5E2F5F5F5F5F5F5F5F5F5F5F5F5F5F5F5F5F5F5F5F5F5F5F5F5F5F5F5F5F5F5F5F5F5F5F5F5F5E9F5F5F5F5F5F5F5F5F5F5F5F5F5F5F5F5F5F5F5F5E2E9F5E2CDCDE2F5F5E9F5F5F5F5E9F5F5F5F5F5F5F5F5F5F5F5F5
310
F5F5F5F5F5F5F5F5F5F5E9F5F5F5E2F5F5F5F5F5F5F5F5F5F5F5F5F5F5F5F5F5F5F5F5F5F5F5F5F5F5F5F5F5F5F5F5F5F5F5F5F5E9F5F5F5F5F5F5F5F5F5F5F5F5F5F5F5F5F5F5F5F5E2E9F5E20000E2F5F5E9F5F5F5F5E9F5F5F5F5F5F5F5F5F5F5F5F5F5F5F5F5F5F5F5F5F5F5E9F5F5F5E2F5F5F5F5F5F5F5F5F5F5F5F5
310
F5F5F5F5F5F5F5F5F5F5F5F5F5F5F5F5F5F5F5F5F5F5F5F5F5E9F5F5F5F5F5F5F5F5F5F5F5F5F5F5F5F5F5F5F5F5E2E9F5E2CDCDE2F5F5E9F5F5F5F5E9F5F5F5F5F5F5F5F5F5F5F5F5F5F5F5F5F5F5F5F5F5F5E9F5F5F5E2F5F5F5F5F5F5F5F5F5F5F5F5F5F5F5F5F5F5F5F5F5F5F5F5F5F5F5F5F5F5F5F5F5F5F5F5BEE9F5
310
F5F5F5F5F5F5F5F5F5F5F5F5F5F5F5F5F5F5F5E2E9F5E20000E2F5F5E9F5F5F5F5E9F5F5F5F5F5F5F5F5F5F5F5F5F5F5F5F5F5F5F5F5F5F5E9F5F5F5E2F5F5F5F5F5F5F5F5F5F5F5F5F5F5F5F5F5F5F5F5F5F5F5F5F5F5F5F5F5F5F5F5F5F5F5F5F5E9F5F5F5F5F5F5F5F5F5F5F5F5F5F5F5F5F5F5F5F5E2E9F5E2CDCDE2F5
310
F5E9F5F5F5F5E9F5F5F5F5F5F5F5F5F5F5F5F5F5F5F5F5F5F5F5F5F5F5E9F5F5F5E2F5F5F5F5F5F5F5F5F5F5F5F5F5F5F5F5F5F5F5F5F5F5F5F5F5F5F5F5F5F5F5F5F5F5F5F5F5E9F5F5F5F5F5F5F5F5F5F5F5F5F5F5F5F5F5F5F5F5E2E9F5E20000E2F5F5E9F5F5F5F5E9F5F5F5F5F5F5F5F5F5F5F5F5F5F5F5F5F5F5F5F5
310
F5F5E9F5F5F5E2F5F5F5F5F5F5F5F5F5F5F5F5F5F5F5F5F5F5F5F5F5F5F5F5F5F5F5F5F5F5F5F5F5F5F5F5BEE9F5F5F5F5F5F5F5F5F5F5F5F5F5F5F5F5F5F5F5F5E2E9F5E2CDCDE2F5F5E9F5F5F5F5E9F5F5F5F5F5F5F5F5F5F5F5F5F5F5F5F5F5F5F5F5F5F5E9F5F5F5E2F5F5F5F5F5F5F5F5F5F5F5F5F5F5F5F5F5F5F5F5
310
F5F5F5F5F5F5F5F5F5F5F5F5F5F5F5F5F5E9F5F5F5F5F5F5F5F5F5F5F5F5F5F5F5F5F5F5F5F5F5E9F5E20000E2F5F5E9F5F5F5F5E9F5F5F5F5F5F5F5F5F5F5F5F5F5F5F5F5F5F5F5F5F5F5E9F5F5F5E2F5F5F5F5F5F5F5F5F5F5F5F5F5F5F5F5F5F5F5F5F5F5F5F5F5F5F5F5F5F5F5F5F5F5F5F5F5E9F5F5F5F5F5F5F5F5F5
310
F5F5F5F5F5F5F5F5F5F5F5F5E9F5E2CDCDE2F5F5E9F5F5F5F5E9F5F5F5F5F5F5F5F5F5F5F5F5F5F5F5F5F5F5F5F5F5F5E9F5F5F5E2F5F5F5F5F5F5F5F5F5F5F5F5F5F5F5F5F5F5F5F5F5F5F5F5F5F5F5F5F5F5F5F5F5F5F5F5F5E9F5F5F5F5F5F5F5F5F5F5F5F5F5F5F5F5F5F5F5F5F5E9F5E20000E2F5F5E9F5F5F5F5E9F5
310
F5F5F5F5F5F5F5F5F5F5F5F5F5F5F5F5F5F5F5F5F5E9F5F5F5E2F5F5F5F5F5F5F5F5F5F5F5F5F5F5F5F5F5F5F5F5F5F5F5F5F5F5F5F5F5F5F5F5F5F5F5F5F5E9F5F5F5F5F5F5F5F5F5F5F5F5F5F5F5F5F5F5F5F5F5E9F5E2CDCDE2F5F5E9F5F5F5F5E9F5F5F5F5F5F5F5F5F5F5F5F5F5F5F5F5F5F5F5F5F5F5E9E9E9E9E9E9
310
E9E9E9E9E9E9E9E9E9E9E9E9E9E9E9E9E9E9E9E9E9E9E9E9E9E9E9E9E9E9E9E9E9E9E9E9E9F5F5F5F5F5F5F5F5F5F5F5F5F5F5F5F5F5F5F5F5F5E9F5E20000E2F5F5E9F5F5F5F5E9F5F5F5F5F5F5F5F5F5F5F5F5F5F5F5F5F5F5F5F5F5F5F5F5F5F5F5F5F5F5F5F5F5F5F5F5F5F5F5F5F5F5F5F5F5F5F5F5F5F5F5F5F5F5F5
310
F5F5F5F5F5F5F5F5F5F5F5F5F5F5F5F5F5F5F5F5F5F5F5F5F5F5F5F5F5F5F5E9F5E2CDCDE2F5F5E9E9E9E9E9E9F5F5F5F5F5F5F5F5F5F5F5F5F5F5F5F5F5F5F5F5F5F5F5F5F5F5F5F5F5F5F5F5F5F5F5F5F5F5F5F5F5F5F5F5F5F5F5F5F5F5F5F5F5F5F5F5F5F5F5F5F5F5F5F5F5F5F5F5F5F5F5F5F5F5F5F5F5F5F5F5F5F5
310
F5F5F5F5E9E9E90000E2F5F5E9F5F5F5F5E9F5F5F5F5F5F5F5F5F5F5F5F5F5E9E9E9E9E9E9E9E9E9E9E9E9E9E9E9E9E9E9E9E9E9E9E9E9E9E9E9E9E9E9E9E9E9E9E9E9E9E9E9E9E9E9E9E9E9E9E9E9E9E9E9E9E9E9E9E9E9E9E9E9F5F5F5F5F5F5F5F5F5F5F5F5F5E9F5E2CDCDE2F5F5E9F5F5F5F5E9F5F5F5F5F5F5F5F5F5
310
F5F5F5F5E9F5F5F5F5F5F5F5F5F5F5F5F5F5F5F5F5F5F5F5F5F5F5F5F5F5F5F5F5F5F5F5F5F5F5F5F5F5F5F5F5F5F5F5F5F5F5F5F5F5F5F5F5F5F5F5F5F5F5E9F5F5F5F5F5F5F5F5F5F5F5F5F5E9F5E20000E2F5F5E9F5F5F5F5E9F5F5F5F5F5F5F5F5F5F5F5F5F5E9F5F5F5F5F5F5F5F5F5F5F5F5F5F5F5F5F5F5F5F5F5F5
310
F5F5F5F5F5F5F5F5F5F5F5F5F5F5F5F5F5F5F5F5F5F5F5F5F5F5F5F5F5F5F5F5F5F5F5F5E9F5F5F5F5F5F5F5F5F5F5F5F5E2E9F5E2CDCDE2F5F5E9F5F5F5F5E9F5F5F5F5F5F5F5F5F5F5F5F5F5E9F5F5F5F5F5F5F5F5F5F5F5F5F5F5F5F5F5F5F5F5F5F5F5F5F5F5F5F5F5F5F5F5F5F5F5F5F5F5F5F5F5F5F5F5F5F5F5F5F5
310
F5F5F5F5F5F5F5F5F5E9F5F5F5F5F5F5F5F5F5F5F5F5E2E9F5E20000E2F5F5E9F5F5F5F5E9F5F5F5F5F5F5F5F5F5F5F5F5F5E9F5F5F5F5F5F5F5F5F5F5F5F5F5F5F5F5F5F5F5F5F5F5F5F5F5F5F5F5F5F5F5F5F5F5F5F5F5F5F5F5F5F5F5F5F5F5F5F5F5F5F5F5F5F5F5F5F5F5E9F5F5F5F5F5F5F5F5F5F5F5F5E2E9F5E200
310
00E2F5F5E9F5F5F5F5E9F5F5F5F5F5F5F5F5F5F5F5F5F5E9F5F5F5F5F5F5F5F5F5F5F5F5F5F5F5F5F5F5F5F5F5F5F5F5F5F5F5F5F5F5F5F5F5F5F5F5F5F5F5F5F5F5F5F5F5F5F5F5F5F5F5F5F5F5F5F5F5F5E9F5F5F5F5F5F5F5F5F5F5F5F5E2E9F5E20000E2F5F5E9F5F5F5F5E9F5F5F5F5F5F5F5F5F5F5F5F5F5E9F5F5F5
310
F5F5F5F5F5F5F5F5F5F5F5F5F5F5F5F5F5F5F5F5F5F5F5F5F5F5F5F5F5F5F5F5F5F5F5F5F5F5F5F5F5F5F5F5F5F5F5F5F5F5F5F5F5F5F5E9F5F5F5F5F5F5F5F5F5F5F5F5E2E9F5E20000E2F5F5E9F5F5F5F5E9F5F5F5F5F5F5F5F5F5F5F5F5F5E9F5F5F5F5F5F5F5F5F5F5F5F5F5F5F5F5F5F5F5F5F5F5F5F5F5F5F5F5F5F5
310
F5F5F5F5F5F5F5F5F5F5F5F5F5F5F5F5F5F5F5F5F5F5F5F5F5F5F5F5E9F5F5F5F5F5F5F5F5F5F5F5F5E2E9F5E20000E2F5F5E9F5F5F5F5E9F5F5F5F5F5F5F5F5F5F5F5F5F5E9F5F5F5F5F5F5F5F5F5F5F5F5F5F5F5F5F5F5F5F5F5F5F5F5F5F5F5F5F5F5F5F5F5F5F5F5F5F5F5F5F5F5F5F5F5F5F5F5F5F5F5F5F5F5F5F5F5
310
F5E9F5F5F5F5F5F5F5F5F5F5F5F5E2E9F5E20000E2F5F5E9F5F5F5F5E9F5F5F5F5F5F5F5F5F5F5F5F5F5E9F5F5F5F5F5F5F5F5F5F5F5F5F5F5F5F5F5F5F5F5F5F5F5F5F5F5F5F5F5F5F5F5F5F5F5F5F5F5F5F5F5F5F5F5F5F5F5F5F5F5F5F5F5F5F5F5F5F5E9F5F5F5F5F5F5F5F5F5F5F5F5E2E9F5E20000E2F5F5E9F5F5F5
310
F5E9F5F5F5F5F5F5F5F5F5F5F5F5F5E9F5F5F5F5F5F5F5F5F5F5F5F5F5F5F5F5F5F5F5F5F5F5F5F5F5F5F5F5F5F5F5F5F5F5F5F5F5F5F5F5F5F5F5F5F5F5F5F5F5F5F5F5F5F5F5F5F5F5E9F5F5F5F5F5F5F5F5F5F5F5F5E2E9F5E20000E2F5F5E9F5F5F5F5E9F5F5F5F5F5F5F5F5F5F5F5F5F5E9F5F5F5F5F5F5F5F5F5F5F5
310
F5F5F5F5F5F5F5F5F5F5F5F5F5F5F5F5F5F5F5F5F5F5F5F5F5F5F5F5F5F5F5F5F5F5F5F5F5F5F5F5F5F5F5F5F5F5F5E9F5F5F5F5F5F5F5F5F5F5F5F5E2E9F5E20000E2F5F5E9F5F5F5F5E9F5F5F5F5F5F5F5F5F5F5F5F5F5E9F5F5F5F5F5F5F5F5F5F5F5F5F5F5F5F5F5F5F5F5F5F5F5F5F5F5F5F5F5F5F5F5F5F5F5F5F5F5
310
F5F5F5F5F5F5F5F5F5F5F5F5F5F5F5F5F5F5F5F5E9F5F5F5F5F5F5F5F5F5F5F5F5E2E9F5E20000E2F5F5E9F5F5F5F5E9F5F5F5F5F5F5F5F5F5F5F5F5F5E9F5F5F5F5F5F5F5F5F5F5F5F5F5F5F5F5F5F5F5F5F5F5F5F5F5F5F5F5F5F5F5F5F5F5F5F5F5F5F5F5F5F5F5F5F5F5F5F5F5F5F5F5F5F5F5F5F5F5E9F5F5F5F5F5F5
310
F5F5F5F5F5F5E2E9F5E20000E2F5F5E9F5F5F5F5E9F5F5F5F5F5F5F5F5F5F5F5F5F5E9F5F5F5F5F5F5F5F5F5F5F5F5F5F5F5F5F5F5F5F5F5F5F5F5F5F5F5F5F5F5F5F5F5F5F5F5F5F5F5F5F5F5F5F5F5F5F5F5F5F5F5F5F5F5F5F5F5F5E9F5F5F5F5F5F5F5F5F5F5F5F5E2E9F5E20000E2F5F5E9F5F5F5F5E9F5F5F5F5F5F5
310
F5F5F5F5F5F5F5E9F5F5F5F5F5F5F5F5F5F5F5F5F5F5F5F5F5F5F5F5F5F5F5F5F5F5F5F5F5F5F5F5F5F5F5F5F5F5F5F5F5F5F5F5F5F5F5F5F5F5F5F5F5F5F5F5F5F5E9F5F5F5F5F5F5F5F5F5F5F5F5E2E9F5E20000E2F5F5E9F5F5F5F5E9F5F5F5F5F5F5F5F5F5F5F5F5F5E9F5F5F5F5F5F5F5F5F5F5F5F5F5F5F5F5F5F5F5
310
F5F5F5F5F5F5F5F5F5F5F5F5F5F5F5F5F5F5F5F5F5F5F5F5F5F5F5F5F5F5F5F5F5F5F5F5F5F5F5E9F5F5F5F5F5F5F5F5F5F5F5F5E2E9F5E20000E2F5F5E9F5F5F5F5E9F5F5F5F5F5F5F5F5F5F5F5F5F5E9F5F5F5F5F5F5F5F5F5F5F5F5F5F5F5F5F5F5F5F5F5F5F5F5F5F5F5F5F5F5F5F5F5F5F5F5F5F5F5F5F5F5F5F5F5F5
310
F5F5F5F5F5F5F5F5F5F5F5F5E9F5F5F5F5F5F5F5F5F5F5F5F5E2E9F5E20000E2F5F5E9F5F5F5F5E9F5F5F5F5F5F5F5F5F5F5F5F5F5E9F5F5F5F5F5F5F5F5F5F5F5F5F5F5F5F5F5F5F5F5F5F5F5F5F5F5F5F5F5F5F5F5F5F5F5F5F5F5F5F5F5F5F5F5F5F5F5F5F5F5F5F5F5F5F5F5F5F5E9F5F5F5F5F5F5F5F5F5F5F5F5E2E9
310
F5E20000E2F5F5E9F5F5F5F5E9F5F5F5F5F5F5F5F5F5F5F5F5F5E9F5F5F5F5F5F5F5F5F5F5F5F5F5F5F5F5F5F5F5F5F5F5F5F5F5F5F5F5F5F5F5F5F5F5F5F5F5F5F5F5F5F5F5F5F5F5F5F5F5F5F5F5F5F5F5F5F5F5E9F5F5F5F5F5F5F5F5F5F5F5F5F5E9F5E20000E2F5F5E9F5F5F5F5E9F5F5F5F5F5F5F5F5F5F5F5F5F5E9
310
F5F5F5F5F5F5F5F5F5F5F5F5F5F5F5F5F5F5F5F5F5F5F5F5F5F5F5F5F5F5F5F5F5F5F5F5F5F5F5F5F5F5F5F5F5F5F5F5F5F5F5F5F5F5F5F5F5F5E9F5F5F5F5F5F5F5F5F5F5F5F5F5E9F5E20000E2F5F5E9F5F5F5F5E9F5F5F5F5F5F5F5F5F5F5F5F5F5E9F5F5F5F5F5F5F5F5F5F5F5F5F5F5F5F5F5F5F5F5F5F5F5F5F5F5F5
310
F5F5F5F5F5F5F5F5F5F5F5F5F5F5F5F5F5F5F5F5F5F5F5F5F5F5F5F5F5F5F5E9F5F5F5F5F5F5F5F5F5F5F5F5F5E9F5E20000E2F5F5E9F5F5F5F5E9F5F5F5F5F5F5F5F5F5F5F5F5F5E9F5F5F5F5F5F5F5F5F5F5F5F5F5F5F5F5F5F5F5F5F5F5F5F5F5F5F5F5F5F5F5F5F5F5F5F5F5F5F5F5F5F5F5F5F5F5F5F5F5F5F5F5F5F5
310
F5F5F5F5E9F5F5F5F5F5F5F5F5F5F5F5F5F5E9F5E20000E2F5F5E9F5F5F5F5E9F5F5F5F5F5F5F5F5F5F5F5F5F5E9F5F5F5F5F5F5F5F5F5F5F5F5F5F5F5F5F5F5F5F5F5F5F5F5F5F5F5F5F5F5F5F5F5F5F5F5F5F5F5F5F5F5F5F5F5F5F5F5F5F5F5F5F5F5F5F5F5F5E9F5F5F5F5F5F5F5F5F5F5F5F5F5E9F5E20000E2F5F5E9
310
F5F5F5F5E9F5F5F5F5F5F5F5F5F5F5F5F5F5E9F5F5F5F5F5F5F5F5F5F5F5F5F5F5F5F5F5F5F5F5F5F5F5F5F5F5F5F5F5F5F5F5F5F5F5F5F5F5F5F5F5F5F5F5F5F5F5F5F5F5F5F5F5F5F5F5F5F5E9F5F5F5F5F5F5F5F5F5F5F5F5F5E9F5E20000E2F5F5E9F5F5F5F5E9F5F5F5F5F5F5F5F5F5F5F5F5F5E9F5F5F5F5F5F5F5F5
310
F5F5F5F5F5F5F5F5F5F5F5F5F5F5F5F5F5F5F5F5F5F5F5F5F5F5F5F5F5F5F5F5F5F5F5F5F5F5F5F5F5F5F5F5F5F5F5F5F5F5E9F5F5F5F5F5F5F5F5F5F5F5F5F5E9F5E20000E2F5F5E9F5F5F5F5E9F5F5F5F5F5F5F5F5F5F5F5F5F5E9F5F5F5F5F5F5F5F5F5F5F5F5F5F5F5F5F5F5F5F5F5F5F5F5F5F5F5F5F5F5F5F5F5F5F5
310
F5F5F5F5F5F5F5F5F5F5F5F5F5F5F5F5F5F5F5F5F5F5F5E9F5F5F5F5F5F5F5F5F5F5F5F5F5E9F5E20000E2F5F5E9F5F5F5F5E9F5F5F5F5F5F5F5F5F5F5F5F5F5E9F5F5F5F5F5F5F5F5F5F5F5F5F5F5F5F5F5F5F5F5F5F5F5F5F5F5F5F5F5F5F5F5F5F5F5F5F5F5F5F5F5F5F5F5F5F5F5F5F5F5F5F5F5F5F5F5F5F5E9F5F5F5
310
F5F5F5F5F5F5F5F5F5F5E9F5E20000E2F5F5E9F5F5F5F5E9F5F5F5F5F5F5F5F5F5F5F5F5F5E9F5F5F5F5F5F5F5F5F5F5F5F5F5F5F5F5F5F5F5F5F5F5F5F5F5F5F5F5F5F5F5F5F5F5F5F5F5F5F5F5F5F5F5F5F5F5F5F5F5F5F5F5F5F5F5F5F5F5E9F5F5F5F5F5F5F5F5F5F5F5F5F5E9F5E20000E2F5F5E9F5F5F5F5E9F5F5F5
310
F5F5F5F5F5F5F5F5F5F5E9F5F5F5F5F5F5F5F5F5F5F5F5F5F5F5F5F5F5F5F5F5F5F5F5F5F5F5F5F5F5F5F5F5F5F5F5F5F5F5F5F5F5F5F5F5F5F5F5F5F5F5F5F5F5F5F5F5F5E9F5F5F5F5F5F5F5F5F5F5F5F5E2E9F5E20000E2F5F5E9F5F5F5F5E9F5F5F5F5F5F5F5F5F5F5F5F5F5E9F5F5F5F5F5F5F5F5F5F5F5F5F5F5F5F5
310
F5F5F5F5F5F5F5F5F5F5F5F5F5F5F5F5F5F5F5F5F5F5F5F5F5F5F5F5F5F5F5F5F5F5F5F5F5F5F5F5F5F5E9F5F5F5F5F5F5F5F5F5F5F5F5E2E9F5E20000E2F5F5E9F5F5F5F5E9F5F5F5F5F5F5F5F5F5F5F5F5F5E9F5F5F5F5F5F5F5F5F5F5F5F5F5F5F5F5F5F5F5F5F5F5F5F5F5F5F5F5F5F5F5F5F5F5F5F5F5F5F5F5F5F5F5
310
F5F5F5F5F5F5F5F5F5F5F5F5F5F5F5E9F5F5F5F5F5F5F5F5F5F5F5F5E2E9F5E20000E2F5F5E9F5F5F5F5E9F5F5F5F5F5F5F5F5F5F5F5F5F5E9F5F5F5F5F5F5F5F5F5F5F5F5F5F5F5F5F5F5F5F5F5F5F5F5F5F5F5F5F5F5F5F5F5F5F5F5F5F5F5F5F5F5F5F5F5F5F5F5F5F5F5F5F5F5F5F5F5F5E9F5F5F5F5F5F5F5F5F5F5F5
310
F5E2E9F5E20000E2F5F5E9F5F5F5F5E9F5F5F5F5F5F5F5F5F5F5F5F5F5E9F5F5F5F5F5F5F5F5F5F5F5F5F5F5F5F5F5F5F5F5F5F5F5F5F5F5F5F5F5F5F5F5F5F5F5F5F5F5F5F5F5F5F5F5F5F5F5F5F5F5F5F5F5F5F5F5F5F5E9F5F5F5F5F5F5F5F5F5F5F5F5E2E9F5E20000E2F5F5E9F5F5F5F5E9F5F5F5F5F5F5F5F5F5F5F5
310
F5F5E9F5F5F5F5F5F5F5F5F5F5F5F5F5F5F5F5F5F5F5F5F5F5F5F5F5F5F5F5F5F5F5F5F5F5F5F5F5F5F5F5F5F5F5F5F5F5F5F5F5F5F5F5F5F5F5F5F5F5E9F5F5F5F5F5F5F5F5F5F5F5F5E2E9F5E20000E2F5F5E9F5F5F5F5E9F5F5F5F5F5F5F5F5F5F5F5F5F5E9F5F5F5F5F5F5F5F5F5F5F5F5F5F5F5F5F5F5F5F5F5F5F5F5
310
F5F5F5F5F5F5F5F5F5F5F5F5F5F5F5F5F5F5F5F5F5F5F5F5F5F5F5F5F5F5F5F5F5F5E9F5F5F5F5F5F5F5F5F5F5F5F5E2E9F5E20000E2F5F5E9F5F5F5F5E9F5F5F5F5F5F5F5F5F5F5F5F5F5E9F5F5F5F5F5F5F5F5F5F5F5F5F5F5F5F5F5F5F5F5F5F5F5F5F5F5F5F5F5F5F5F5F5F5F5F5F5F5F5F5F5F5F5F5F5F5F5F5F5F5F5
310
F5F5F5F5F5F5F5E9F5F5F5F5F5F5F5F5F5F5F5F5E2E9F5E20000E2F5F5E9F5F5F5F5E9F5F5F5F5F5F5F5F5F5F5F5F5F5E9F5F5F5F5F5F5F5F5F5F5F5F5F5F5F5F5F5F5F5F5F5F5F5F5F5F5F5F5F5F5F5F5F5F5F5F5F5F5F5F5F5F5F5F5F5F5F5F5F5F5F5F5F5F5F5F5F5F5E9F5F5F5F5F5F5F5F5F5F5F5F5E2E9F5E20000E2
310
F5F5E9F5F5F5F5E9F5F5F5F5F5F5F5F5F5F5F5F5F5E9F5F5F5F5F5F5F5F5F5F5F5F5F5F5F5F5F5F5F5F5F5F5F5F5F5F5F5F5F5F5F5F5F5F5F5F5F5F5F5F5F5F5F5F5F5F5F5F5F5F5F5F5F5F5F5F5F5F5E9F5F5F5F5F5F5F5F5F5F5F5F5E2E9F5E20000E2F5F5E9F5F5F5F5E9F5F5F5F5F5F5F5F5F5F5F5F5F5E9F5F5F5F5F5
310
F5F5F5F5F5F5F5F5F5F5F5F5F5F5F5F5F5F5F5F5F5F5F5F5F5F5F5F5F5F5F5F5F5F5F5F5F5F5F5F5F5F5F5F5F5F5F5F5F5F5F5F5F5E9F5F5F5F5F5F5F5F5F5F5F5F5E2E9F5E20000E2F5F5E9F5F5F5F5E9F5F5F5F5F5F5F5F5F5F5F5F5F5E9F5F5F5F5F5F5F5F5F5F5F5F5F5F5F5F5F5F5F5F5F5F5F5F5F5F5F5F5F5F5F5F5
310
F5F5F5F5F5F5F5F5F5F5F5F5F5F5F5F5F5F5F5F5F5F5F5F5F5F5E9F5F5F5F5F5F5F5F5F5F5F5F5E2E9F5E20000E2F5F5E9F5F5F5F5E9F5F5F5F5F5F5F5F5F5F5F5F5F5E9F5F5F5F5F5F5F5F5F5F5F5F5F5F5F5F5F5F5F5F5F5F5F5F5F5F5F5F5F5F5F5F5F5F5F5F5F5F5F5F5F5F5F5F5F5F5F5F5F5F5F5F5F5F5F5F5F5F5E9
310
F5F5F5F5F5F5F5F5F5F5F5F5E2E9F5E20000E2F5F5E9F5F5F5F5E9F5F5F5F5F5F5F5F5F5F5F5F5F5E9F5F5F5F5F5F5F5F5F5F5F5F5F5F5F5F5F5F5F5F5F5F5F5F5F5F5F5F5F5F5F5F5F5F5F5F5F5F5F5F5F5F5F5F5F5F5F5F5F5F5F5F5F5F5F5F5F5F5E9F5F5F5F5F5F5F5F5F5F5F5F5E2E9F5E20000E2F5F5E9F5F5F5F5E9
310
F5F5F5F5F5F5F5F5F5F5F5F5F5E9F5F5F5F5F5F5F5F5F5F5F5F5F5F5F5F5F5F5F5F5F5F5F5F5F5F5F5F5F5F5F5F5F5F5F5F5F5F5F5F5F5F5F5F5F5F5F5F5F5F5F5F5F5F5F5F5F5F5E9F5F5F5F5F5F5F5F5F5F5F5F5E2E9F5E20000E2F5F5E9F5F5F5F5E9F5F5F5F5F5F5F5F5F5F5F5F5F5E9F5F5F5F5F5F5F5F5F5F5F5F5F5
310
F5F5F5F5F5F5F5F5F5F5F5F5F5F5F5F5F5F5F5F5F5F5F5F5F5F5F5F5F5F5F5F5F5F5F5F5F5F5F5F5F5F5F5F5F5E9F5F5F5F5F5F5F5F5F5F5F5F5E2E9F5E20000E2F5F5E9F5F5F5F5E9F5F5F5F5F5F5F5F5F5F5F5F5F5E9F5F5F5F5F5F5F5F5F5F5F5F5F5F5F5F5F5F5F5F5F5F5F5F5F5F5F5F5F5F5F5F5F5F5F5F5F5F5F5F5
310
F5F5F5F5F5F5F5F5F5F5F5F5F5F5F5F5F5F5E9F5F5F5F5F5F5F5F5F5F5F5F5E2E9F5E20000E2F5F5E9F5F5F5F5E9F5F5F5F5F5F5F5F5F5F5F5F5F5E9F5F5F5F5F5F5F5F5F5F5F5F5F5F5F5F5F5F5F5F5F5F5F5F5F5F5F5F5F5F5F5F5F5F5F5F5F5F5F5F5F5F5F5F5F5F5F5F5F5F5F5F5F5F5F5F5F5F5E9F5F5F5F5F5F5F5F5
310
F5F5F5F5F5E9F5E20000E2F5F5E9F5F5F5F5E9F5F5F5F5F5F5F5F5F5F5F5F5F5E9F5F5F5F5F5F5F5F5F5F5F5F5F5F5F5F5F5F5F5F5F5F5F5F5F5F5F5F5F5F5F5F5F5F5F5F5F5F5F5F5F5F5F5F5F5F5F5F5F5F5F5F5F5F5F5F5F5F5E9F5F5F5F5F5F5F5F5F5F5F5F5F5E9F5E20000E2F5F5E9F5F5F5F5E9F5F5F5F5F5F5F5F5
310
F5F5F5F5F5E9F5F5F5F5F5F5F5F5F5F5F5F5F5F5F5F5F5F5F5F5F5F5F5F5F5F5F5F5F5F5F5F5F5F5F5F5F5F5F5F5F5F5F5F5F5F5F5F5F5F5F5F5F5F5F5F5F5F5E9F5F5F5F5F5F5F5F5F5F5F5F5F5E9F5E20000E2F5F5E9F5F5F5F5E9F5F5F5F5F5F5F5F5F5F5F5F5F5E9F5F5F5F5F5F5F5F5F5F5F5F5F5F5F5F5F5F5F5F5F5
310
F5F5F5F5F5F5F5F5F5F5F5F5F5F5F5F5F5F5F5F5F5F5F5F5F5F5F5F5F5F5F5F5F5F5F5F5F5E9F5F5F5F5F5F5F5F5F5F5F5F5F5E9F5E20000E2F5F5E9F5F5F5F5E9F5F5F5F5F5F5F5F5F5F5F5F5F5E9E9E9E9E9E9E9E9E9E9E9E9E9E9E9E9E9E9E9E9E9E9E9E9E9E9E9E9E9E9E9E9E9E9E9E9E9E9E9E9E9E9E9E9E9E9E9E9E9
310
E9E9E9E9E9E9E9E9E9E9E9F5F5F5F5F5F5F5F5F5F5F5F5F5E9F5E20000E2F5F5E9F5F5F5F5E9F5F5F5F5F5F5F5F5F5F5F5F5F5F5F5F5F5F5F5F5F5F5F5F5F5F5F5F5F5F5F5F5F5F5F5F5F5F5F5F5F5F5F5F5F5F5F5F5F5F5F5F5F5F5F5F5F5F5F5F5F5F5F5F5F5F5F5F5F5F5F5F5F5F5F5F5F5F5F5F5F5F5F5F5F5F5E9F5E2
310
0000E2F5F5E9F5F5F5F5E9F5F5F5F5F5F5F5F5F5F5F5F5F5F5F5F5F5F5F5F5F5F5F5F5F5F5F5F5F5F5F5F5F5F5F5F5F5F5F5F5F5F5F5F5F5F5F5F5F5F5F5F5F5F5F5F5F5F5F5F5F5F5F5F5F5F5F5F5F5F5F5F5F5F5F5F5F5F5F5F5F5F5F5F5F5F5E9F5E20000E2F5F5E9F5F5F5F5E9F5F5F5F5F5F5F5F5F5F5F5F5F5F5F5F5
310
F5F5F5F5F5F5F5F5F5F5F5F5F5F5F5F5F5F5F5F5F5F5F5F5F5F5F5F5F5F5F5F5F5F5F5F5F5F5F5F5F5F5F5F5F5F5F5F5F5F5F5F5F5F5F5F5F5F5F5F5F5F5F5F5F5F5F5F5F5F5E9F5E20000E2F5F5E9F5F5F5F5E9F5F5F5F5F5F5F5F5F5F5F5F5F5F5F5F5F5F5F5F5F5F5F5F5F5F5F5F5F5F5F5F5F5F5F5F5F5F5F5F5F5F5F5
310
F5F5F5F5F5F5F5F5F5F5F5F5F5F5F5F5F5F5F5F5F5F5F5F5F5F5F5F5F5F5F5F5F5F5F5F5F5F5F5F5F5F5F5E9F5E20000E2F5F5E9F5F5F5F5E9F5F5F5F5F5F5F5F5F5F5F5F5F5F5F5F5F5F5F5F5F5F5F5F5F5F5F5F5F5F5F5F5F5F5F5F5F5F5F5F5F5F5F5F5F5F5F5F5F5F5F5F5F5F5F5F5F5F5F5F5F5F5F5F5F5F5F5F5F5F5
310
F5F5F5F5F5F5F5F5F5F5F5F5F5F5F5E2E9F5E20000E2F5F5E9F5F5F5F5E9F5F5F5F5F5F5F5F5F5F5F5F5F5F5F5F5F5F5F5F5F5F5F5F5F5F5F5F5F5F5F5F5F5F5F5F5F5F5F5F5F5F5F5F5F5F5F5F5F5F5F5F5F5F5F5F5F5F5F5F5F5F5F5F5F5F5F5F5F5F5F5F5F5F5F5F5F5F5F5F5F5F5F5F5F5E2E9F5E20000E2F5F5E9F5F5
310
F5F5E9F5F5F5F5F5F5F5F5F5F5F5F5F5F5F5F5F5F5F5F5F5F5F5F5F5F5F5F5F5F5F5F5F5F5F5F5F5F5F5F5F5F5F5F5F5F5F5F5F5F5F5F5F5F5F5F5F5F5F5F5F5F5F5F5F5F5F5F5F5F5F5F5F5F5F5F5F5F5F5F5F5F5F5F5F5E2E9F5E20000E2F5F5E9F5F5F5F5E9F5F5F5F5F5F5F5F5F5F5F5F5F5F5F5F5F5F5F5F5F5F5F5F5
310
F5F5F5F5F5F5F5F5F5F5F5F5F5F5F5F5F5F5F5F5F5F5F5F5F5F5F5F5F5F5F5F5F5F5F5F5F5F5F5F5F5F5F5F5F5F5F5F5F5F5F5F5F5F5F5F5F5F5F5F5F5E2E9F5E20000E2F5F5E9F5F5F5F5E9F5F5F5F5F5F5F5F5F5F5F5F5F5F5F5F5F5F5F5F5F5F5F5F5F5F5F5F5F5F5F5F5F5F5F5F5F5BEBEBEBEBEBEBEBEBEBEBEBEBEBE
310
BEF5F5F5F5F5F5F5F5F5F5F5F5F5F5F5F5F5F5F5F5F5F5F5F5F5F5F5F5F5F5F5F5F5E2E9F5E20000E2F5F5E9F5F5F5F5E9F5F5F5F5F5F5F5F5F5F5F5F5F5F5F5F5F5F5F5F5F5F5F5F5F5F5F5F5F5F5F5F5F5F5F5F5F5BEBEBEBEBEBEBEBEBEBEBEBEBEBEBEF5F5F5F5F5F5F5F5F5F5F5F5F5F5F5F5F5F5F5F5F5F5F5F5F5F5
310
F5F5F5F5F5F5F5E2E9F5E20000E2F5F5E9F5F5F5F5E9F5F5F5F5F5F5F5F5F5F5F5F5F5F5F5F5F5F5F5F5F5F5F5F5F5F5F5F5F5F5F5F5F5F5F5F5F5F5F5F5F5F5F5F5F5F5F5F5F5F5F5F5F5F5F5F5F5F5F5F5F5F5F5F5F5F5F5F5F5F5F5F5F5F5F5F5F5F5F5F5F5F5F5F5F5E2E9F5E20000E2F5F5E9F5F5F5F5E9F5F5F5F5F5
310
F5F5F5F5F5F5F5F5F5F5F5F5F5F5F5F5F5F5F5F5F5F5F5F5F5F5F5F5F5F5F5F5F5F5F5F5F5F5F5F5F5F5F5F5F5F5F5F5F5F5F5F5F5F5F5F5F5F5F5F5F5F5F5F5F5F5F5F5F5F5F5F5F5F5F5F5F5F5F5F5E2E9F5E20000E2F5F5E9E2E2E2E2E9E9E9E9E9E9E9E9E9E9E9E9E9E9E9E9E9E9E9E9E9E9E9E9E9E9E9E9E9E9E9E9E9
310
E9E9E9E9E9E9E9E9E9E9E9E9E9E9E9E9E9E9E9E9E9E9E9E9E9E9E9E9E9E9E9E9E9E9E9E9E9E9E9E9E9E9E9E9E9E9E9E9E9E9E9E9E9E9E9F5E20000E2F5F5E9F5F5F5F5F5F5F5F5F5F5F5F5F5F5F5F5F5F5F5F5F5F5F5F5F5F5F5F5F5F5F5F5F5F5F5F5F5F5F5F5F5F5F5F5F5F5F5F5F5F5F5F5F5F5F5F5F5F5F5F5F5F5F5F5
310
F5F5F5F5F5F5F5F5F5F5F5F5F5F5F5F5F5F5F5F5F5F5F5F5F5F5F5F5F5E20000E2F5F5E9F5F5F5F5F5F5F5F5F5F5F5F5F5F5F5F5F5F5F5F5F5F5F5F5F5F5F5F5F5F5F5F5F5F5F5F5F5F5F5F5F5F5F5F5F5F5F5F5F5F5F5F5F5F5F5F5F5F5F5F5F5F5F5F5F5F5F5F5F5F5F5F5F5F5F5F5F5F5F5F5F5F5F5F5F5F5F5F5F5F5F5
310
F5F5E20000E2E2E2E9E2E2E2E2E2E2E2E2E2E2E2E2E2E2E2E2E2E2E2E2E2E2E2E2E2E2E2E2E2E2E2E2E2E2E2E2E2E2E2E2E2E2E2E2E2E2E2E2E2E2E2E2E2E2E2E2E2E2E2E2E2E2E2E2E2E2E2E2E2E2E2E2E2E2E2E2E2E2E2E2E2E2E2E2E2E2E2E2E2E2E2E2E2E20000EFEFEFE9EFEFEFEFEFEFEFEFEFEFEFEFEFEFEFEFEFEF
310
EFEFEFEFEFEFEFEFEFEFEFEFEFEFEFEFEFEFEFEFEFEFEFEFEFEFEFEFEFEFEFEFEFEFEFEFEFEFEFEFEFEFEFEFEFEFEFEFEFEFEFEFEFEFEFEFEFEFEFEFEFEFEFEFEFEFEFEFEFEFEFEFEFEFEFEF0000
  0
XRECORD
  5
24E
102
{ACAD_REACTORS
330
24D
102
}
330
24D
100
AcDbXrecord
280
     1
102
SHADEPLOT
 70
     0
102
SHADEPLOTRESLEVEL
 70
     2
102
SHADEPLOTCUSTOMDPI
 70
   300
  0
XRECORD
  5
253
102
{ACAD_REACTORS
330
252
102
}
330
252
100
AcDbXrecord
280
     1
102
MATERIAL
148
0.0
149
0.0
149
0.0
 93
        0
 94
       63
282
     0
 72
     1
 77
     1
171
     1
175
     1
179
     1
273
     0
  0
XRECORD
  5
251
102
{ACAD_REACTORS
330
250
102
}
330
250
100
AcDbXrecord
280
     1
102
MATERIAL
148
0.0
149
0.0
149
0.0
 93
        0
 94
       63
282
     0
 72
     1
 77
     1
171
     1
175
     1
179
     1
273
     0
  0
XRECORD
  5
24C
102
{ACAD_REACTORS
330
24B
102
}
330
24B
100
AcDbXrecord
280
     1
102
MATERIAL
148
0.0
149
0.0
149
0.0
 93
        0
 94
       63
282
     0
 72
     1
 77
     1
171
     1
175
     1
179
     1
273
     0
  0
CELLSTYLEMAP
  5
248
102
{ACAD_REACTORS
330
226
102
}
330
226
100
AcDbCellStyleMap
 90
        3
300
CELLSTYLE
  1
TABLEFORMAT_BEGIN
 90
        5
170
     1
 91
        0
 92
    32768
 62
   257
 93
        1
300
CONTENTFORMAT
  1
CONTENTFORMAT_BEGIN
 90
        0
 91
        0
 92
        4
 93
        0
300

 40
0.0
140
1.0
 94
        5
 62
     0
340
207
144
0.25
309
CONTENTFORMAT_END
171
     1
301
MARGIN
  1
CELLMARGIN_BEGIN
 40
0.06
 40
0.06
 40
0.06
 40
0.06
 40
0.18
 40
0.18
309
CELLMARGIN_END
 94
        6
 95
        1
302
GRIDFORMAT
  1
GRIDFORMAT_BEGIN
 90
        0
 91
        1
 62
     0
 92
       -2
340
0
 93
        0
 40
0.045
309
GRIDFORMAT_END
 95
        2
302
GRIDFORMAT
  1
GRIDFORMAT_BEGIN
 90
        0
 91
        1
 62
     0
 92
       -2
340
0
 93
        0
 40
0.045
309
GRIDFORMAT_END
 95
        4
302
GRIDFORMAT
  1
GRIDFORMAT_BEGIN
 90
        0
 91
        1
 62
     0
 92
       -2
340
0
 93
        0
 40
0.045
309
GRIDFORMAT_END
 95
        8
302
GRIDFORMAT
  1
GRIDFORMAT_BEGIN
 90
        0
 91
        1
 62
     0
 92
       -2
340
0
 93
        0
 40
0.045
309
GRIDFORMAT_END
 95
       16
302
GRIDFORMAT
  1
GRIDFORMAT_BEGIN
 90
        0
 91
        1
 62
     0
 92
       -2
340
0
 93
        0
 40
0.045
309
GRIDFORMAT_END
 95
       32
302
GRIDFORMAT
  1
GRIDFORMAT_BEGIN
 90
        0
 91
        1
 62
     0
 92
       -2
340
0
 93
        0
 40
0.045
309
GRIDFORMAT_END
309
TABLEFORMAT_END
  1
CELLSTYLE_BEGIN
 90
        1
 91
        1
300
_TITLE
309
CELLSTYLE_END
300
CELLSTYLE
  1
TABLEFORMAT_BEGIN
 90
        5
170
     1
 91
        0
 92
        0
 62
   257
 93
        1
300
CONTENTFORMAT
  1
CONTENTFORMAT_BEGIN
 90
        0
 91
        0
 92
        4
 93
        0
300

 40
0.0
140
1.0
 94
        5
 62
     0
340
207
144
0.18
309
CONTENTFORMAT_END
171
     1
301
MARGIN
  1
CELLMARGIN_BEGIN
 40
0.06
 40
0.06
 40
0.06
 40
0.06
 40
0.18
 40
0.18
309
CELLMARGIN_END
 94
        6
 95
        1
302
GRIDFORMAT
  1
GRIDFORMAT_BEGIN
 90
        0
 91
        1
 62
     0
 92
       -2
340
0
 93
        0
 40
0.045
309
GRIDFORMAT_END
 95
        2
302
GRIDFORMAT
  1
GRIDFORMAT_BEGIN
 90
        0
 91
        1
 62
     0
 92
       -2
340
0
 93
        0
 40
0.045
309
GRIDFORMAT_END
 95
        4
302
GRIDFORMAT
  1
GRIDFORMAT_BEGIN
 90
        0
 91
        1
 62
     0
 92
       -2
340
0
 93
        0
 40
0.045
309
GRIDFORMAT_END
 95
        8
302
GRIDFORMAT
  1
GRIDFORMAT_BEGIN
 90
        0
 91
        1
 62
     0
 92
       -2
340
0
 93
        0
 40
0.045
309
GRIDFORMAT_END
 95
       16
302
GRIDFORMAT
  1
GRIDFORMAT_BEGIN
 90
        0
 91
        1
 62
     0
 92
       -2
340
0
 93
        0
 40
0.045
309
GRIDFORMAT_END
 95
       32
302
GRIDFORMAT
  1
GRIDFORMAT_BEGIN
 90
        0
 91
        1
 62
     0
 92
       -2
340
0
 93
        0
 40
0.045
309
GRIDFORMAT_END
309
TABLEFORMAT_END
  1
CELLSTYLE_BEGIN
 90
        2
 91
        1
300
_HEADER
309
CELLSTYLE_END
300
CELLSTYLE
  1
TABLEFORMAT_BEGIN
 90
        5
170
     1
 91
        0
 92
        0
 62
   257
 93
        1
300
CONTENTFORMAT
  1
CONTENTFORMAT_BEGIN
 90
        0
 91
        0
 92
        4
 93
        0
300

 40
0.0
140
1.0
 94
        2
 62
     0
340
207
144
0.18
309
CONTENTFORMAT_END
171
     1
301
MARGIN
  1
CELLMARGIN_BEGIN
 40
0.06
 40
0.06
 40
0.06
 40
0.06
 40
0.18
 40
0.18
309
CELLMARGIN_END
 94
        6
 95
        1
302
GRIDFORMAT
  1
GRIDFORMAT_BEGIN
 90
        0
 91
        1
 62
     0
 92
       -2
340
0
 93
        0
 40
0.045
309
GRIDFORMAT_END
 95
        2
302
GRIDFORMAT
  1
GRIDFORMAT_BEGIN
 90
        0
 91
        1
 62
     0
 92
       -2
340
0
 93
        0
 40
0.045
309
GRIDFORMAT_END
 95
        4
302
GRIDFORMAT
  1
GRIDFORMAT_BEGIN
 90
        0
 91
        1
 62
     0
 92
       -2
340
0
 93
        0
 40
0.045
309
GRIDFORMAT_END
 95
        8
302
GRIDFORMAT
  1
GRIDFORMAT_BEGIN
 90
        0
 91
        1
 62
     0
 92
       -2
340
0
 93
        0
 40
0.045
309
GRIDFORMAT_END
 95
       16
302
GRIDFORMAT
  1
GRIDFORMAT_BEGIN
 90
        0
 91
        1
 62
     0
 92
       -2
340
0
 93
        0
 40
0.045
309
GRIDFORMAT_END
 95
       32
302
GRIDFORMAT
  1
GRIDFORMAT_BEGIN
 90
        0
 91
        1
 62
     0
 92
       -2
340
0
 93
        0
 40
0.045
309
GRIDFORMAT_END
309
TABLEFORMAT_END
  1
CELLSTYLE_BEGIN
 90
        3
 91
        2
300
_DATA
309
CELLSTYLE_END
  0
XRECORD
  5
254
102
{ACAD_REACTORS
330
226
102
}
330
226
100
AcDbXrecord
280
     1
102
ACAD_ROUNDTRIP_PRE2007_TABLESTYLE
 90
        4
 91
        0
  1

 92
        4
 93
        0
  2

 94
        4
 95
        0
  3

  0
ENDSEC
  0
EOF
