  0
SECTION
  2
HEADER
  9
$ACADVER
  1
AC1009
  9
$INSBASE
 10
215187.23367367301
 20
127657.5168525552
 30
0.0
  9
$EXTMIN
 10
215187.20005459481
 20
127657.5157057546
 30
-13.0
  9
$EXTMAX
 10
225387.20005459481
 20
141677.5157057546
 30
47.0
  9
$LIMMIN
 10
0.0
 20
0.0
  9
$LIMMAX
 10
420.0
 20
297.0
  9
$ORTHOMODE
 70
     0
  9
$REGENMODE
 70
     1
  9
$FILLMODE
 70
     1
  9
$QTEXTMODE
 70
     0
  9
$MIRRTEXT
 70
     0
  9
$DRAGMODE
 70
     2
  9
$LTSCALE
 40
75.0
  9
$OSMODE
 70
  3071
  9
$ATTMODE
 70
     1
  9
$TEXTSIZE
 40
20.0
  9
$TRACEWID
 40
1.0
  9
$TEXTSTYLE
  7
ROMANS
  9
$CLAYER
  8
0WYMIARY-PL
  9
$CELTYPE
  6
BYLAYER
  9
$CECOLOR
 62
   256
  9
$DIMSCALE
 40
1.0
  9
$DIMASZ
 40
30.0
  9
$DIMEXO
 40
43.0
  9
$DIMDLI
 40
0.0
  9
$DIMRND
 40
0.5
  9
$DIMDLE
 40
12.0
  9
$DIMEXE
 40
13.0
  9
$DIMTP
 40
0.0
  9
$DIMTM
 40
0.0
  9
$DIMTXT
 40
80.0
  9
$DIMCEN
 40
0.0
  9
$DIMTSZ
 40
0.0
  9
$DIMTOL
 70
     0
  9
$DIMLIM
 70
     0
  9
$DIMTIH
 70
     0
  9
$DIMTOH
 70
     0
  9
$DIMSE1
 70
     1
  9
$DIMSE2
 70
     1
  9
$DIMTAD
 70
     0
  9
$DIMZIN
 70
    12
  9
$DIMBLK
  1
B-DIM
  9
$DIMASO
 70
     1
  9
$DIMSHO
 70
     1
  9
$DIMPOST
  1

  9
$DIMAPOST
  1

  9
$DIMALT
 70
     0
  9
$DIMALTD
 70
     2
  9
$DIMALTF
 40
25.399999999999999
  9
$DIMLFAC
 40
1.0
  9
$DIMTOFL
 70
     1
  9
$DIMTVP
 40
1.0
  9
$DIMTIX
 70
     1
  9
$DIMSOXD
 70
     0
  9
$DIMSAH
 70
     0
  9
$DIMBLK1
  1

  9
$DIMBLK2
  1

  9
$DIMSTYLE
  2
500
  9
$DIMCLRD
 70
     1
  9
$DIMCLRE
 70
     1
  9
$DIMCLRT
 70
    10
  9
$DIMTFAC
 40
1.0
  9
$DIMGAP
 40
0.0
  9
$LUNITS
 70
     2
  9
$LUPREC
 70
     1
  9
$SKETCHINC
 40
1.0
  9
$FILLETRAD
 40
0.0
  9
$AUNITS
 70
     0
  9
$AUPREC
 70
     0
  9
$MENU
  1
.
  9
$ELEVATION
 40
0.0
  9
$PELEVATION
 40
0.0
  9
$THICKNESS
 40
0.0
  9
$LIMCHECK
 70
     0
  9
$BLIPMODE
 70
     0
  9
$CHAMFERA
 40
0.0
  9
$CHAMFERB
 40
0.0
  9
$SKPOLY
 70
     0
  9
$TDCREATE
 40
2452027.6705474542
  9
$TDUPDATE
 40
2454599.5793972341
  9
$TDINDWG
 40
8.5826332523000008
  9
$TDUSRTIMER
 40
8.5826332523000008
  9
$USRTIMER
 70
     1
  9
$ANGBASE
 50
0.0
  9
$ANGDIR
 70
     0
  9
$PDMODE
 70
     0
  9
$PDSIZE
 40
0.0
  9
$PLINEWID
 40
0.0
  9
$COORDS
 70
     0
  9
$SPLFRAME
 70
     0
  9
$SPLINETYPE
 70
     6
  9
$SPLINESEGS
 70
     8
  9
$ATTDIA
 70
     1
  9
$ATTREQ
 70
     1
  9
$HANDLING
 70
     1
  9
$HANDSEED
  5
10C8C
  9
$SURFTAB1
 70
     6
  9
$SURFTAB2
 70
     6
  9
$SURFTYPE
 70
     6
  9
$SURFU
 70
     6
  9
$SURFV
 70
     6
  9
$UCSNAME
  2

  9
$UCSORG
 10
0.0
 20
0.0
 30
0.0
  9
$UCSXDIR
 10
1.0
 20
0.0
 30
0.0
  9
$UCSYDIR
 10
0.0
 20
1.0
 30
0.0
  9
$PUCSNAME
  2

  9
$PUCSORG
 10
0.0
 20
0.0
 30
0.0
  9
$PUCSXDIR
 10
1.0
 20
0.0
 30
0.0
  9
$PUCSYDIR
 10
0.0
 20
1.0
 30
0.0
  9
$USERI1
 70
     0
  9
$USERI2
 70
     0
  9
$USERI3
 70
     0
  9
$USERI4
 70
     0
  9
$USERI5
 70
     0
  9
$USERR1
 40
0.0
  9
$USERR2
 40
0.0
  9
$USERR3
 40
0.0
  9
$USERR4
 40
0.0
  9
$USERR5
 40
0.0
  9
$WORLDVIEW
 70
     1
  9
$SHADEDGE
 70
     3
  9
$SHADEDIF
 70
    70
  9
$TILEMODE
 70
     1
  9
$MAXACTVP
 70
    64
  9
$PLIMCHECK
 70
     0
  9
$PEXTMIN
 10
1.0000000000000000E+020
 20
1.0000000000000000E+020
 30
1.0000000000000000E+020
  9
$PEXTMAX
 10
-1.0000000000000000E+020
 20
-1.0000000000000000E+020
 30
-1.0000000000000000E+020
  9
$PLIMMIN
 10
0.0
 20
0.0
  9
$PLIMMAX
 10
420.0
 20
297.0
  9
$UNITMODE
 70
     0
  9
$VISRETAIN
 70
     1
  9
$PLINEGEN
 70
     0
  9
$PSLTSCALE
 70
     1
  0
ENDSEC
  0
SECTION
  2
TABLES
  0
TABLE
  2
VPORT
 70
     1
  0
VPORT
  2
*ACTIVE
 70
     0
 10
0.0
 20
0.0
 11
1.0
 21
1.0
 12
217394.71633686649
 22
136549.8764758849
 13
0.0
 23
0.0
 14
10.0
 24
10.0
 15
10.0
 25
10.0
 16
0.0
 26
0.0
 36
1.0
 17
0.0
 27
0.0
 37
0.0
 40
4487.4459874122404
 41
1.7586206896551719
 42
50.0
 43
0.0
 44
0.0
 50
0.0
 51
0.0
 71
     0
 72
  1000
 73
     1
 74
     1
 75
     0
 76
     0
 77
     0
 78
     0
  0
ENDTAB
  0
TABLE
  2
LTYPE
 70
     2
  0
LTYPE
  2
CONTINUOUS
 70
     0
  3
Solid line
 72
    65
 73
     0
 40
0.0
  0
ENDTAB
  0
TABLE
  2
LAYER
 70
    12
  0
LAYER
  2
0
 70
     0
 62
     7
  6
CONTINUOUS
  0
LAYER
  2
0WYMIARY-PL
 70
     0
 62
     1
  6
CONTINUOUS
  0
ENDTAB
  0
TABLE
  2
STYLE
 70
     3
  0
STYLE
  2
STANDARD
 70
     0
 40
0.0
 41
1.0
 50
0.0
 71
     0
 42
2.5
  3
txt
  4

  0
STYLE
  2
ROMANS
 70
     0
 40
0.0
 41
0.9
 50
0.0
 71
     0
 42
20.0
  3
romans.shx
  4

  0
ENDTAB
  0
TABLE
  2
VIEW
 70
     1
  0
VIEW
  2
RODODENDRON_5
 70
     0
 40
14020.0
 10
220287.16643551661
 20
148687.51455895399
 41
10200.000000000029
 11
0.0
 21
0.0
 31
1.0
 12
0.0
 22
0.0
 32
0.0
 42
50.0
 43
0.0
 44
0.0
 50
0.0
 71
     0
  0
ENDTAB
  0
TABLE
  2
UCS
 70
     0
  0
ENDTAB
  0
TABLE
  2
APPID
 70
    13
  0
APPID
  2
ACAD
 70
     0
  0
APPID
  2
RAK
 70
     0
  0
APPID
  2
ACAECLAYERSTANDARD
 70
     0
  0
APPID
  2
ACAD_PSEXT
 70
     0
  0
APPID
  2
DCO15
 70
     0
  0
APPID
  2
ACAD_EXEMPT_FROM_CAD_STANDARDS
 70
     0
  0
APPID
  2
ACAD_DSTYLE_DIM_LINETYPE
 70
     0
  0
APPID
  2
ACAD_DSTYLE_DIM_EXT1_LINETYPE
 70
     0
  0
APPID
  2
ACAD_DSTYLE_DIM_EXT2_LINETYPE
 70
     0
  0
APPID
  2
ACLAYERTOOLS
 70
     0
  0
APPID
  2
ACDBBLOCKREPETAG
 70
     0
  0
APPID
  2
AECBASE
 70
     0
  0
APPID
  2
AEC_OBJVER_INFO
 70
     0
  0
ENDTAB
  0
TABLE
  2
DIMSTYLE
 70
     8
  0
DIMSTYLE
  2
500
 70
     0
  3

  4

  5
B-DIM
  6

  7

 40
1.0
 41
30.0
 42
43.0
 43
0.0
 44
13.0
 45
0.5
 46
12.0
 47
0.0
 48
0.0
140
80.0
141
0.0
142
0.0
143
25.399999999999999
144
1.0
145
1.0
146
1.0
147
0.0
 71
     0
 72
     0
 73
     0
 74
     0
 75
     1
 76
     1
 77
     0
 78
    12
170
     0
171
     2
172
     1
173
     0
174
     1
175
     0
176
     1
177
     1
178
    10
  0
DIMSTYLE
  2
STANDARD
 70
     0
  3

  4

  5

  6

  7

 40
1.0
 41
0.18
 42
0.0625
 43
0.38
 44
0.18
 45
0.0
 46
0.0
 47
0.0
 48
0.0
140
0.18
141
0.09
142
0.0
143
25.399999999999999
144
1.0
145
0.0
146
1.0
147
0.09
 71
     0
 72
     0
 73
     1
 74
     1
 75
     0
 76
     0
 77
     0
 78
     0
170
     0
171
     2
172
     0
173
     0
174
     0
175
     0
176
     0
177
     0
178
     0
  0
ENDTAB
  0
ENDSEC
  0
SECTION
  2
BLOCKS
  0
BLOCK
  8
0
  2
$MODEL_SPACE
 70
     0
 10
0.0
 20
0.0
 30
0.0
  3
$MODEL_SPACE
  1

  0
ENDBLK
  5
9
  8
0
  0
BLOCK
 67
     1
  8
0
  2
$PAPER_SPACE
 70
     0
 10
0.0
 20
0.0
 30
0.0
  3
$PAPER_SPACE
  1

  0
ENDBLK
  5
F
 67
     1
  8
0
  0
BLOCK
  8
0
  2
B-DIM
 70
     0
 10
0.0
 20
0.0
 30
0.0
  3
B-DIM
  1

  0
LINE
  5
27
  8
0
 62
     1
 10
0.000000000000091
 20
-1.1000000000000001
 30
0.0
 11
0.000000000000091
 21
1.1000000000000001
 31
0.0
  0
POLYLINE
  5
28
  8
0
 62
     1
 66
     1
 10
0.0
 20
0.0
 30
0.0
 40
0.3
 41
0.3
  0
VERTEX
  5
10B59
  8
0
 62
     1
 10
-0.7071067811864851
 20
-0.7071067811864851
 30
0.0
  0
VERTEX
  5
10B5A
  8
0
 62
     1
 10
0.707106781186576
 20
0.707106781186576
 30
0.0
  0
SEQEND
  5
10B5B
  8
0
 62
     1
  0
LINE
  5
29
  8
0
 62
     1
 10
1.2000000000000901
 20
0.0
 30
0.0
 11
-1.1999999999999089
 21
0.0
 31
0.0
  0
ENDBLK
  5
2A
  8
0
  0
BLOCK
  8
0
  2
*U27
 70
     1
 10
0.0
 20
0.0
 30
0.0
  3
*U27
  1

  0
SOLID
  5
10B65
  8
0
  6
CONTINUOUS
 10
217443.86453586339
 20
137247.0931105999
 30
0.0
 11
217443.86453586339
 21
137247.0931105999
 31
0.0
 12
217482.86453586339
 22
137247.0931105999
 32
0.0
 13
217482.86453586339
 23
137247.0931105999
 33
0.0
210
0.0
220
0.0
230
1.0
  0
SOLID
  5
10B66
  8
0
  6
CONTINUOUS
 10
217443.86453586339
 20
137247.0931105999
 30
0.0
 11
217443.86453586339
 21
137208.0931105999
 31
0.0
 12
217482.86453586339
 22
137208.0931105999
 32
0.0
 13
217482.86453586339
 23
137208.0931105999
 33
0.0
210
0.0
220
0.0
230
1.0
  0
SOLID
  5
10B67
  8
0
  6
CONTINUOUS
 10
-217443.86453586339
 20
137247.0931105999
 30
0.0
 11
-217482.86453586339
 21
137247.0931105999
 31
0.0
 12
-217482.86453586339
 22
137208.0931105999
 32
0.0
 13
-217482.86453586339
 23
137208.0931105999
 33
0.0
210
0.0
220
0.0
230
-1.0
  0
SOLID
  5
10B68
  8
0
  6
CONTINUOUS
 10
217443.86453586339
 20
137208.0931105999
 30
0.0
 11
217443.86453586339
 21
137208.0931105999
 31
0.0
 12
217482.86453586339
 22
137208.0931105999
 32
0.0
 13
217482.86453586339
 23
137208.0931105999
 33
0.0
210
0.0
220
0.0
230
1.0
  0
LINE
  5
10B69
  8
0
  6
CONTINUOUS
 10
217443.86453586339
 20
137247.0931105999
 30
0.0
 11
217482.86453586339
 21
137247.0931105999
 31
0.0
  0
LINE
  5
10B6A
  8
0
  6
CONTINUOUS
 10
217443.86453586339
 20
137247.0931105999
 30
0.0
 11
217443.86453586339
 21
137208.0931105999
 31
0.0
  0
LINE
  5
10B6B
  8
0
  6
CONTINUOUS
 10
217482.86453586339
 20
137247.0931105999
 30
0.0
 11
217482.86453586339
 21
137208.0931105999
 31
0.0
  0
LINE
  5
10B6C
  8
0
  6
CONTINUOUS
 10
217443.86453586339
 20
137208.0931105999
 30
0.0
 11
217482.86453586339
 21
137208.0931105999
 31
0.0
  0
ENDBLK
  5
10B6E
  8
0
  0
BLOCK
  8
0
  2
*U28
 70
     1
 10
0.0
 20
0.0
 30
0.0
  3
*U28
  1

  0
SOLID
  5
10B70
  8
0
  6
CONTINUOUS
 10
217848.86453586339
 20
137307.0931105999
 30
0.0
 11
217848.86453586339
 21
137307.0931105999
 31
0.0
 12
217892.36453586351
 22
137307.0931105999
 32
0.0
 13
217892.36453586351
 23
137307.0931105999
 33
0.0
210
0.0
220
0.0
230
1.0
  0
SOLID
  5
10B71
  8
0
  6
CONTINUOUS
 10
217892.36453586351
 20
137307.0931105999
 30
0.0
 11
217892.36453586351
 21
137307.0931105999
 31
0.0
 12
217935.86453586339
 22
137307.0931105999
 32
0.0
 13
217935.86453586339
 23
137307.0931105999
 33
0.0
210
0.0
220
0.0
230
1.0
  0
SOLID
  5
10B72
  8
0
  6
CONTINUOUS
 10
217848.86453586339
 20
137307.0931105999
 30
0.0
 11
217848.86453586339
 21
137247.0931105999
 31
0.0
 12
217935.86453586351
 22
137247.0931105999
 32
0.0
 13
217935.86453586351
 23
137247.0931105999
 33
0.0
210
0.0
220
0.0
230
1.0
  0
SOLID
  5
10B73
  8
0
  6
CONTINUOUS
 10
-217848.86453586339
 20
137307.0931105999
 30
0.0
 11
-217935.86453586339
 21
137307.0931105999
 31
0.0
 12
-217935.86453586351
 22
137247.0931105999
 32
0.0
 13
-217935.86453586351
 23
137247.0931105999
 33
0.0
210
0.0
220
0.0
230
-1.0
  0
SOLID
  5
10B74
  8
0
  6
CONTINUOUS
 10
217748.86453586339
 20
137247.0931105999
 30
0.0
 11
217748.86453586339
 21
137247.0931105999
 31
0.0
 12
217848.86453586339
 22
137247.0931105999
 32
0.0
 13
217848.86453586339
 23
137247.0931105999
 33
0.0
210
0.0
220
0.0
230
1.0
  0
SOLID
  5
10B75
  8
0
  6
CONTINUOUS
 10
217908.86453586339
 20
137247.0931105999
 30
0.0
 11
217908.86453586339
 21
137247.0931105999
 31
0.0
 12
217935.86453586351
 22
137247.0931105999
 32
0.0
 13
217935.86453586351
 23
137247.0931105999
 33
0.0
210
0.0
220
0.0
230
1.0
  0
SOLID
  5
10B76
  8
0
  6
CONTINUOUS
 10
217748.86453586339
 20
137247.0931105999
 30
0.0
 11
217748.86453586339
 21
137187.0931105999
 31
0.0
 12
217908.86453586339
 22
137187.0931105999
 32
0.0
 13
217908.86453586339
 23
137187.0931105999
 33
0.0
  0
SOLID
  5
10B77
  8
0
  6
CONTINUOUS
 10
-217748.86453586339
 20
137247.0931105999
 30
0.0
 11
-217908.86453586339
 21
137247.0931105999
 31
0.0
 12
-217908.86453586339
 22
137187.0931105999
 32
0.0
 13
-217908.86453586339
 23
137187.0931105999
 33
0.0
210
0.0
220
0.0
230
-1.0
  0
SOLID
  5
10B78
  8
0
  6
CONTINUOUS
 10
217808.86453586339
 20
137187.0931105999
 30
0.0
 11
217808.86453586339
 21
137187.0931105999
 31
0.0
 12
217848.86453586339
 22
137187.0931105999
 32
0.0
 13
217848.86453586339
 23
137187.0931105999
 33
0.0
210
0.0
220
0.0
230
1.0
  0
SOLID
  5
10B79
  8
0
  6
CONTINUOUS
 10
217848.86453586339
 20
137187.0931105999
 30
0.0
 11
217848.86453586339
 21
137187.0931105999
 31
0.0
 12
217908.86453586339
 22
137187.0931105999
 32
0.0
 13
217908.86453586339
 23
137187.0931105999
 33
0.0
210
0.0
220
0.0
230
1.0
  0
SOLID
  5
10B7A
  8
0
  6
CONTINUOUS
 10
217748.86453586339
 20
137187.0931105999
 30
0.0
 11
217748.86453586339
 21
137087.0931105999
 31
0.0
 12
217808.86453586339
 22
137087.0931105999
 32
0.0
 13
217808.86453586339
 23
137087.0931105999
 33
0.0
210
0.0
220
0.0
230
1.0
  0
SOLID
  5
10B7B
  8
0
  6
CONTINUOUS
 10
-217748.86453586339
 20
137187.0931105999
 30
0.0
 11
-217808.86453586339
 21
137187.0931105999
 31
0.0
 12
-217808.86453586339
 22
137087.0931105999
 32
0.0
 13
-217808.86453586339
 23
137087.0931105999
 33
0.0
210
0.0
220
0.0
230
-1.0
  0
SOLID
  5
10B7C
  8
0
  6
CONTINUOUS
 10
217733.86453586339
 20
137087.0931105999
 30
0.0
 11
217733.86453586339
 21
137087.0931105999
 31
0.0
 12
217748.86453586339
 22
137087.0931105999
 32
0.0
 13
217748.86453586339
 23
137087.0931105999
 33
0.0
210
0.0
220
0.0
230
1.0
  0
SOLID
  5
10B7D
  8
0
  6
CONTINUOUS
 10
217733.86453586339
 20
137087.0931105999
 30
0.0
 11
217733.86453586339
 21
137027.0931105999
 31
0.0
 12
217808.86453586339
 22
137027.0931105999
 32
0.0
 13
217808.86453586339
 23
137027.0931105999
 33
0.0
210
0.0
220
0.0
230
1.0
  0
SOLID
  5
10B7E
  8
0
  6
CONTINUOUS
 10
-217733.86453586339
 20
137087.0931105999
 30
0.0
 11
-217808.86453586339
 21
137087.0931105999
 31
0.0
 12
-217808.86453586339
 22
137027.0931105999
 32
0.0
 13
-217808.86453586339
 23
137027.0931105999
 33
0.0
210
0.0
220
0.0
230
-1.0
  0
SOLID
  5
10B7F
  8
0
  6
CONTINUOUS
 10
217733.86453586339
 20
137027.0931105999
 30
0.0
 11
217733.86453586339
 21
137027.0931105999
 31
0.0
 12
217808.86453586339
 22
137027.0931105999
 32
0.0
 13
217808.86453586339
 23
137027.0931105999
 33
0.0
210
0.0
220
0.0
230
1.0
  0
LINE
  5
10B80
  8
0
  6
CONTINUOUS
 10
217848.86453586339
 20
137307.0931105999
 30
0.0
 11
217892.36453586351
 21
137307.0931105999
 31
0.0
  0
LINE
  5
10B81
  8
0
  6
CONTINUOUS
 10
217892.36453586351
 20
137307.0931105999
 30
0.0
 11
217935.86453586339
 21
137307.0931105999
 31
0.0
  0
LINE
  5
10B82
  8
0
  6
CONTINUOUS
 10
217848.86453586339
 20
137307.0931105999
 30
0.0
 11
217848.86453586339
 21
137247.0931105999
 31
0.0
  0
LINE
  5
10B83
  8
0
  6
CONTINUOUS
 10
217935.86453586339
 20
137307.0931105999
 30
0.0
 11
217935.86453586351
 21
137247.0931105999
 31
0.0
  0
LINE
  5
10B84
  8
0
  6
CONTINUOUS
 10
217748.86453586339
 20
137247.0931105999
 30
0.0
 11
217848.86453586339
 21
137247.0931105999
 31
0.0
  0
LINE
  5
10B85
  8
0
  6
CONTINUOUS
 10
217908.86453586339
 20
137247.0931105999
 30
0.0
 11
217935.86453586351
 21
137247.0931105999
 31
0.0
  0
LINE
  5
10B86
  8
0
  6
CONTINUOUS
 10
217748.86453586339
 20
137247.0931105999
 30
0.0
 11
217748.86453586339
 21
137187.0931105999
 31
0.0
  0
LINE
  5
10B87
  8
0
  6
CONTINUOUS
 10
217908.86453586339
 20
137247.0931105999
 30
0.0
 11
217908.86453586339
 21
137187.0931105999
 31
0.0
  0
LINE
  5
10B88
  8
0
  6
CONTINUOUS
 10
217808.86453586339
 20
137187.0931105999
 30
0.0
 11
217848.86453586339
 21
137187.0931105999
 31
0.0
  0
LINE
  5
10B89
  8
0
  6
CONTINUOUS
 10
217848.86453586339
 20
137187.0931105999
 30
0.0
 11
217908.86453586339
 21
137187.0931105999
 31
0.0
  0
LINE
  5
10B8A
  8
0
  6
CONTINUOUS
 10
217748.86453586339
 20
137187.0931105999
 30
0.0
 11
217748.86453586339
 21
137087.0931105999
 31
0.0
  0
LINE
  5
10B8B
  8
0
  6
CONTINUOUS
 10
217808.86453586339
 20
137187.0931105999
 30
0.0
 11
217808.86453586339
 21
137087.0931105999
 31
0.0
  0
LINE
  5
10B8C
  8
0
  6
CONTINUOUS
 10
217733.86453586339
 20
137087.0931105999
 30
0.0
 11
217748.86453586339
 21
137087.0931105999
 31
0.0
  0
LINE
  5
10B8D
  8
0
  6
CONTINUOUS
 10
217733.86453586339
 20
137087.0931105999
 30
0.0
 11
217733.86453586339
 21
137027.0931105999
 31
0.0
  0
LINE
  5
10B8E
  8
0
  6
CONTINUOUS
 10
217808.86453586339
 20
137087.0931105999
 30
0.0
 11
217808.86453586339
 21
137027.0931105999
 31
0.0
  0
LINE
  5
10B8F
  8
0
  6
CONTINUOUS
 10
217733.86453586339
 20
137027.0931105999
 30
0.0
 11
217808.86453586339
 21
137027.0931105999
 31
0.0
  0
ENDBLK
  5
10B91
  8
0
  0
BLOCK
  8
0
  2
*U29
 70
     1
 10
0.0
 20
0.0
 30
0.0
  3
*U29
  1

  0
SOLID
  5
10B93
  8
0
  6
CONTINUOUS
 10
218205.86453586351
 20
137307.0931105999
 30
0.0
 11
218205.86453586351
 21
137307.0931105999
 31
0.0
 12
218292.86453586339
 22
137307.0931105999
 32
0.0
 13
218292.86453586339
 23
137307.0931105999
 33
0.0
210
0.0
220
0.0
230
1.0
  0
SOLID
  5
10B94
  8
0
  6
CONTINUOUS
 10
218205.86453586351
 20
137307.0931105999
 30
0.0
 11
218205.86453586351
 21
137247.0931105999
 31
0.0
 12
218292.86453586339
 22
137247.0931105999
 32
0.0
 13
218292.86453586339
 23
137247.0931105999
 33
0.0
  0
SOLID
  5
10B95
  8
0
  6
CONTINUOUS
 10
-218205.86453586351
 20
137307.0931105999
 30
0.0
 11
-218292.86453586339
 21
137307.0931105999
 31
0.0
 12
-218292.86453586339
 22
137247.0931105999
 32
0.0
 13
-218292.86453586339
 23
137247.0931105999
 33
0.0
210
0.0
220
0.0
230
-1.0
  0
SOLID
  5
10B96
  8
0
  6
CONTINUOUS
 10
218205.86453586351
 20
137247.0931105999
 30
0.0
 11
218205.86453586351
 21
137247.0931105999
 31
0.0
 12
218232.86453586339
 22
137247.0931105999
 32
0.0
 13
218232.86453586339
 23
137247.0931105999
 33
0.0
210
0.0
220
0.0
230
1.0
  0
SOLID
  5
10B97
  8
0
  6
CONTINUOUS
 10
218292.86453586339
 20
137247.0931105999
 30
0.0
 11
218292.86453586339
 21
137247.0931105999
 31
0.0
 12
218402.86453586339
 22
137247.0931105999
 32
0.0
 13
218402.86453586339
 23
137247.0931105999
 33
0.0
210
0.0
220
0.0
230
1.0
  0
SOLID
  5
10B98
  8
0
  6
CONTINUOUS
 10
218232.86453586339
 20
137247.0931105999
 30
0.0
 11
218232.86453586339
 21
137187.0931105999
 31
0.0
 12
218402.86453586351
 22
137187.0931105999
 32
0.0
 13
218402.86453586351
 23
137187.0931105999
 33
0.0
210
0.0
220
0.0
230
1.0
  0
SOLID
  5
10B99
  8
0
  6
CONTINUOUS
 10
-218232.86453586339
 20
137247.0931105999
 30
0.0
 11
-218402.86453586339
 21
137247.0931105999
 31
0.0
 12
-218402.86453586351
 22
137187.0931105999
 32
0.0
 13
-218402.86453586351
 23
137187.0931105999
 33
0.0
210
0.0
220
0.0
230
-1.0
  0
SOLID
  5
10B9A
  8
0
  6
CONTINUOUS
 10
218232.86453586339
 20
137187.0931105999
 30
0.0
 11
218232.86453586339
 21
137187.0931105999
 31
0.0
 12
218402.86453586351
 22
137187.0931105999
 32
0.0
 13
218402.86453586351
 23
137187.0931105999
 33
0.0
210
0.0
220
0.0
230
1.0
  0
LINE
  5
10B9B
  8
0
  6
CONTINUOUS
 10
218205.86453586351
 20
137307.0931105999
 30
0.0
 11
218292.86453586339
 21
137307.0931105999
 31
0.0
  0
LINE
  5
10B9C
  8
0
  6
CONTINUOUS
 10
218205.86453586351
 20
137307.0931105999
 30
0.0
 11
218205.86453586351
 21
137247.0931105999
 31
0.0
  0
LINE
  5
10B9D
  8
0
  6
CONTINUOUS
 10
218292.86453586339
 20
137307.0931105999
 30
0.0
 11
218292.86453586339
 21
137247.0931105999
 31
0.0
  0
LINE
  5
10B9E
  8
0
  6
CONTINUOUS
 10
218205.86453586351
 20
137247.0931105999
 30
0.0
 11
218232.86453586339
 21
137247.0931105999
 31
0.0
  0
LINE
  5
10B9F
  8
0
  6
CONTINUOUS
 10
218292.86453586339
 20
137247.0931105999
 30
0.0
 11
218402.86453586339
 21
137247.0931105999
 31
0.0
  0
LINE
  5
10BA0
  8
0
  6
CONTINUOUS
 10
218232.86453586339
 20
137247.0931105999
 30
0.0
 11
218232.86453586339
 21
137187.0931105999
 31
0.0
  0
LINE
  5
10BA1
  8
0
  6
CONTINUOUS
 10
218402.86453586339
 20
137247.0931105999
 30
0.0
 11
218402.86453586351
 21
137187.0931105999
 31
0.0
  0
LINE
  5
10BA2
  8
0
  6
CONTINUOUS
 10
218232.86453586339
 20
137187.0931105999
 30
0.0
 11
218402.86453586351
 21
137187.0931105999
 31
0.0
  0
ENDBLK
  5
10BA4
  8
0
  0
BLOCK
  8
0
  2
*U30
 70
     1
 10
0.0
 20
0.0
 30
0.0
  3
*U30
  1

  0
SOLID
  5
10BA6
  8
0
  6
CONTINUOUS
 10
218582.86453586339
 20
137247.0931105999
 30
0.0
 11
218582.86453586339
 21
137247.0931105999
 31
0.0
 12
218697.86453586339
 22
137247.0931105999
 32
0.0
 13
218697.86453586339
 23
137247.0931105999
 33
0.0
210
0.0
220
0.0
230
1.0
  0
SOLID
  5
10BA7
  8
0
  6
CONTINUOUS
 10
218582.86453586339
 20
137247.0931105999
 30
0.0
 11
218582.86453586351
 21
137187.0931105999
 31
0.0
 12
218697.86453586339
 22
137187.0931105999
 32
0.0
 13
218697.86453586339
 23
137187.0931105999
 33
0.0
210
0.0
220
0.0
230
1.0
  0
SOLID
  5
10BA8
  8
0
  6
CONTINUOUS
 10
-218582.86453586339
 20
137247.0931105999
 30
0.0
 11
-218697.86453586339
 21
137247.0931105999
 31
0.0
 12
-218697.86453586339
 22
137187.0931105999
 32
0.0
 13
-218697.86453586339
 23
137187.0931105999
 33
0.0
210
0.0
220
0.0
230
-1.0
  0
SOLID
  5
10BA9
  8
0
  6
CONTINUOUS
 10
218582.86453586351
 20
137187.0931105999
 30
0.0
 11
218582.86453586351
 21
137187.0931105999
 31
0.0
 12
218637.86453586339
 22
137187.0931105999
 32
0.0
 13
218637.86453586339
 23
137187.0931105999
 33
0.0
210
0.0
220
0.0
230
1.0
  0
SOLID
  5
10BAA
  8
0
  6
CONTINUOUS
 10
218637.86453586339
 20
137187.0931105999
 30
0.0
 11
218637.86453586351
 21
136859.0931105999
 31
0.0
 12
218697.86453586339
 22
136859.0931105999
 32
0.0
 13
218697.86453586339
 23
136859.0931105999
 33
0.0
210
0.0
220
0.0
230
1.0
  0
SOLID
  5
10BAB
  8
0
  6
CONTINUOUS
 10
-218637.86453586339
 20
137187.0931105999
 30
0.0
 11
-218697.86453586339
 21
137187.0931105999
 31
0.0
 12
-218697.86453586339
 22
136859.0931105999
 32
0.0
 13
-218697.86453586339
 23
136859.0931105999
 33
0.0
210
0.0
220
0.0
230
-1.0
  0
SOLID
  5
10BAC
  8
0
  6
CONTINUOUS
 10
218697.86453586339
 20
136859.0931105999
 30
0.0
 11
218697.86453586339
 21
136859.0931105999
 31
0.0
 12
218753.86453586339
 22
136859.0931105999
 32
0.0
 13
218753.86453586339
 23
136859.0931105999
 33
0.0
210
0.0
220
0.0
230
1.0
  0
SOLID
  5
10BAD
  8
0
  6
CONTINUOUS
 10
218637.86453586351
 20
136859.0931105999
 30
0.0
 11
218637.86453586351
 21
136799.09311059999
 31
0.0
 12
218753.86453586339
 22
136799.09311059999
 32
0.0
 13
218753.86453586339
 23
136799.09311059999
 33
0.0
210
0.0
220
0.0
230
1.0
  0
SOLID
  5
10BAE
  8
0
  6
CONTINUOUS
 10
-218637.86453586351
 20
136859.0931105999
 30
0.0
 11
-218753.86453586339
 21
136859.0931105999
 31
0.0
 12
-218753.86453586339
 22
136799.09311059999
 32
0.0
 13
-218753.86453586339
 23
136799.09311059999
 33
0.0
210
0.0
220
0.0
230
-1.0
  0
SOLID
  5
10BAF
  8
0
  6
CONTINUOUS
 10
218637.86453586351
 20
136799.09311059999
 30
0.0
 11
218637.86453586351
 21
136799.09311059999
 31
0.0
 12
218753.86453586339
 22
136799.09311059999
 32
0.0
 13
218753.86453586339
 23
136799.09311059999
 33
0.0
210
0.0
220
0.0
230
1.0
  0
LINE
  5
10BB0
  8
0
  6
CONTINUOUS
 10
218582.86453586339
 20
137247.0931105999
 30
0.0
 11
218697.86453586339
 21
137247.0931105999
 31
0.0
  0
LINE
  5
10BB1
  8
0
  6
CONTINUOUS
 10
218582.86453586339
 20
137247.0931105999
 30
0.0
 11
218582.86453586351
 21
137187.0931105999
 31
0.0
  0
LINE
  5
10BB2
  8
0
  6
CONTINUOUS
 10
218697.86453586339
 20
137247.0931105999
 30
0.0
 11
218697.86453586339
 21
137187.0931105999
 31
0.0
  0
LINE
  5
10BB3
  8
0
  6
CONTINUOUS
 10
218582.86453586351
 20
137187.0931105999
 30
0.0
 11
218637.86453586339
 21
137187.0931105999
 31
0.0
  0
LINE
  5
10BB4
  8
0
  6
CONTINUOUS
 10
218637.86453586339
 20
137187.0931105999
 30
0.0
 11
218637.86453586351
 21
136859.0931105999
 31
0.0
  0
LINE
  5
10BB5
  8
0
  6
CONTINUOUS
 10
218697.86453586339
 20
137187.0931105999
 30
0.0
 11
218697.86453586339
 21
136859.0931105999
 31
0.0
  0
LINE
  5
10BB6
  8
0
  6
CONTINUOUS
 10
218697.86453586339
 20
136859.0931105999
 30
0.0
 11
218753.86453586339
 21
136859.0931105999
 31
0.0
  0
LINE
  5
10BB7
  8
0
  6
CONTINUOUS
 10
218637.86453586351
 20
136859.0931105999
 30
0.0
 11
218637.86453586351
 21
136799.09311059999
 31
0.0
  0
LINE
  5
10BB8
  8
0
  6
CONTINUOUS
 10
218753.86453586339
 20
136859.0931105999
 30
0.0
 11
218753.86453586339
 21
136799.09311059999
 31
0.0
  0
LINE
  5
10BB9
  8
0
  6
CONTINUOUS
 10
218637.86453586351
 20
136799.09311059999
 30
0.0
 11
218753.86453586339
 21
136799.09311059999
 31
0.0
  0
ENDBLK
  5
10BBB
  8
0
  0
BLOCK
  8
0
  2
*U31
 70
     1
 10
0.0
 20
0.0
 30
0.0
  3
*U31
  1

  0
SOLID
  5
10BBD
  8
0
  6
CONTINUOUS
 10
218843.86453586351
 20
136859.0931105999
 30
0.0
 11
218843.86453586351
 21
136859.0931105999
 31
0.0
 12
218947.86453586339
 22
136859.0931105999
 32
0.0
 13
218947.86453586339
 23
136859.0931105999
 33
0.0
210
0.0
220
0.0
230
1.0
  0
SOLID
  5
10BBE
  8
0
  6
CONTINUOUS
 10
218843.86453586351
 20
136859.0931105999
 30
0.0
 11
218843.86453586351
 21
136799.09311059999
 31
0.0
 12
218947.86453586339
 22
136799.09311059999
 32
0.0
 13
218947.86453586339
 23
136799.09311059999
 33
0.0
210
0.0
220
0.0
230
1.0
  0
SOLID
  5
10BBF
  8
0
  6
CONTINUOUS
 10
-218843.86453586351
 20
136859.0931105999
 30
0.0
 11
-218947.86453586339
 21
136859.0931105999
 31
0.0
 12
-218947.86453586339
 22
136799.09311059999
 32
0.0
 13
-218947.86453586339
 23
136799.09311059999
 33
0.0
210
0.0
220
0.0
230
-1.0
  0
SOLID
  5
10BC0
  8
0
  6
CONTINUOUS
 10
218843.86453586351
 20
136799.09311059999
 30
0.0
 11
218843.86453586351
 21
136799.09311059999
 31
0.0
 12
218887.86453586339
 22
136799.09311059999
 32
0.0
 13
218887.86453586339
 23
136799.09311059999
 33
0.0
210
0.0
220
0.0
230
1.0
  0
SOLID
  5
10BC1
  8
0
  6
CONTINUOUS
 10
218887.86453586339
 20
136799.09311059999
 30
0.0
 11
218887.86453586339
 21
135937.0931105999
 31
0.0
 12
218947.86453586339
 22
135937.0931105999
 32
0.0
 13
218947.86453586339
 23
135937.0931105999
 33
0.0
210
0.0
220
0.0
230
1.0
  0
SOLID
  5
10BC2
  8
0
  6
CONTINUOUS
 10
-218887.86453586339
 20
136799.09311059999
 30
0.0
 11
-218947.86453586339
 21
136799.09311059999
 31
0.0
 12
-218947.86453586339
 22
135937.0931105999
 32
0.0
 13
-218947.86453586339
 23
135937.0931105999
 33
0.0
210
0.0
220
0.0
230
-1.0
  0
SOLID
  5
10BC3
  8
0
  6
CONTINUOUS
 10
218848.86453586339
 20
135937.0931105999
 30
0.0
 11
218848.86453586339
 21
135937.0931105999
 31
0.0
 12
218887.86453586339
 22
135937.0931105999
 32
0.0
 13
218887.86453586339
 23
135937.0931105999
 33
0.0
210
0.0
220
0.0
230
1.0
  0
SOLID
  5
10BC4
  8
0
  6
CONTINUOUS
 10
218848.86453586339
 20
135937.0931105999
 30
0.0
 11
218848.86453586339
 21
135877.0931105999
 31
0.0
 12
218947.86453586339
 22
135877.0931105999
 32
0.0
 13
218947.86453586339
 23
135877.0931105999
 33
0.0
  0
SOLID
  5
10BC5
  8
0
  6
CONTINUOUS
 10
-218848.86453586339
 20
135937.0931105999
 30
0.0
 11
-218947.86453586339
 21
135937.0931105999
 31
0.0
 12
-218947.86453586339
 22
135877.0931105999
 32
0.0
 13
-218947.86453586339
 23
135877.0931105999
 33
0.0
210
0.0
220
0.0
230
-1.0
  0
SOLID
  5
10BC6
  8
0
  6
CONTINUOUS
 10
218848.86453586339
 20
135877.0931105999
 30
0.0
 11
218848.86453586339
 21
135877.0931105999
 31
0.0
 12
218947.86453586339
 22
135877.0931105999
 32
0.0
 13
218947.86453586339
 23
135877.0931105999
 33
0.0
210
0.0
220
0.0
230
1.0
  0
LINE
  5
10BC7
  8
0
  6
CONTINUOUS
 10
218843.86453586351
 20
136859.0931105999
 30
0.0
 11
218947.86453586339
 21
136859.0931105999
 31
0.0
  0
LINE
  5
10BC8
  8
0
  6
CONTINUOUS
 10
218843.86453586351
 20
136859.0931105999
 30
0.0
 11
218843.86453586351
 21
136799.09311059999
 31
0.0
  0
LINE
  5
10BC9
  8
0
  6
CONTINUOUS
 10
218947.86453586339
 20
136859.0931105999
 30
0.0
 11
218947.86453586339
 21
136799.09311059999
 31
0.0
  0
LINE
  5
10BCA
  8
0
  6
CONTINUOUS
 10
218843.86453586351
 20
136799.09311059999
 30
0.0
 11
218887.86453586339
 21
136799.09311059999
 31
0.0
  0
LINE
  5
10BCB
  8
0
  6
CONTINUOUS
 10
218887.86453586339
 20
136799.09311059999
 30
0.0
 11
218887.86453586339
 21
135937.0931105999
 31
0.0
  0
LINE
  5
10BCC
  8
0
  6
CONTINUOUS
 10
218947.86453586339
 20
136799.09311059999
 30
0.0
 11
218947.86453586339
 21
135937.0931105999
 31
0.0
  0
LINE
  5
10BCD
  8
0
  6
CONTINUOUS
 10
218848.86453586339
 20
135937.0931105999
 30
0.0
 11
218887.86453586339
 21
135937.0931105999
 31
0.0
  0
LINE
  5
10BCE
  8
0
  6
CONTINUOUS
 10
218848.86453586339
 20
135937.0931105999
 30
0.0
 11
218848.86453586339
 21
135877.0931105999
 31
0.0
  0
LINE
  5
10BCF
  8
0
  6
CONTINUOUS
 10
218947.86453586339
 20
135937.0931105999
 30
0.0
 11
218947.86453586339
 21
135877.0931105999
 31
0.0
  0
LINE
  5
10BD0
  8
0
  6
CONTINUOUS
 10
218848.86453586339
 20
135877.0931105999
 30
0.0
 11
218947.86453586339
 21
135877.0931105999
 31
0.0
  0
ENDBLK
  5
10BD2
  8
0
  0
BLOCK
  8
0
  2
*U32
 70
     1
 10
0.0
 20
0.0
 30
0.0
  3
*U32
  1

  0
SOLID
  5
10BD4
  8
0
  6
CONTINUOUS
 10
218056.86453586351
 20
136347.0931105999
 30
0.0
 11
218056.86453586351
 21
136347.0931105999
 31
0.0
 12
218349.86453586339
 22
136347.0931105999
 32
0.0
 13
218349.86453586339
 23
136347.0931105999
 33
0.0
210
0.0
220
0.0
230
1.0
  0
SOLID
  5
10BD5
  8
0
  6
CONTINUOUS
 10
218056.86453586351
 20
136347.0931105999
 30
0.0
 11
218056.86453586351
 21
136287.0931105999
 31
0.0
 12
218349.86453586339
 22
136287.0931105999
 32
0.0
 13
218349.86453586339
 23
136287.0931105999
 33
0.0
210
0.0
220
0.0
230
1.0
  0
SOLID
  5
10BD6
  8
0
  6
CONTINUOUS
 10
-218056.86453586351
 20
136347.0931105999
 30
0.0
 11
-218349.86453586339
 21
136347.0931105999
 31
0.0
 12
-218349.86453586339
 22
136287.0931105999
 32
0.0
 13
-218349.86453586339
 23
136287.0931105999
 33
0.0
210
0.0
220
0.0
230
-1.0
  0
SOLID
  5
10BD7
  8
0
  6
CONTINUOUS
 10
218056.86453586351
 20
136287.0931105999
 30
0.0
 11
218056.86453586351
 21
136287.0931105999
 31
0.0
 12
218289.86453586339
 22
136287.0931105999
 32
0.0
 13
218289.86453586339
 23
136287.0931105999
 33
0.0
210
0.0
220
0.0
230
1.0
  0
SOLID
  5
10BD8
  8
0
  6
CONTINUOUS
 10
218289.86453586339
 20
136287.0931105999
 30
0.0
 11
218289.86453586339
 21
136086.0931105999
 31
0.0
 12
218349.86453586339
 22
136086.0931105999
 32
0.0
 13
218349.86453586339
 23
136086.0931105999
 33
0.0
210
0.0
220
0.0
230
1.0
  0
SOLID
  5
10BD9
  8
0
  6
CONTINUOUS
 10
-218289.86453586339
 20
136287.0931105999
 30
0.0
 11
-218349.86453586339
 21
136287.0931105999
 31
0.0
 12
-218349.86453586339
 22
136086.0931105999
 32
0.0
 13
-218349.86453586339
 23
136086.0931105999
 33
0.0
210
0.0
220
0.0
230
-1.0
  0
SOLID
  5
10BDA
  8
0
  6
CONTINUOUS
 10
218289.86453586339
 20
136086.0931105999
 30
0.0
 11
218289.86453586339
 21
136062.76086637759
 31
0.0
 12
218349.86453586339
 22
136062.76086637759
 32
0.0
 13
218349.86453586339
 23
136062.76086637759
 33
0.0
210
0.0
220
0.0
230
1.0
  0
SOLID
  5
10BDB
  8
0
  6
CONTINUOUS
 10
-218289.86453586339
 20
136086.0931105999
 30
0.0
 11
-218349.86453586339
 21
136086.0931105999
 31
0.0
 12
-218349.86453586339
 22
136062.76086637759
 32
0.0
 13
-218349.86453586339
 23
136062.76086637759
 33
0.0
210
0.0
220
0.0
230
-1.0
  0
SOLID
  5
10BDC
  8
0
  6
CONTINUOUS
 10
218289.86453586339
 20
136062.76086637759
 30
0.0
 11
218289.86453586339
 21
135937.0931105999
 31
0.0
 12
218349.86453586339
 22
135937.0931105999
 32
0.0
 13
218349.86453586339
 23
135937.0931105999
 33
0.0
210
0.0
220
0.0
230
1.0
  0
SOLID
  5
10BDD
  8
0
  6
CONTINUOUS
 10
-218289.86453586339
 20
136062.76086637759
 30
0.0
 11
-218349.86453586339
 21
136062.76086637759
 31
0.0
 12
-218349.86453586339
 22
135937.0931105999
 32
0.0
 13
-218349.86453586339
 23
135937.0931105999
 33
0.0
210
0.0
220
0.0
230
-1.0
  0
SOLID
  5
10BDE
  8
0
  6
CONTINUOUS
 10
218349.86453586339
 20
135937.0931105999
 30
0.0
 11
218349.86453586339
 21
135937.0931105999
 31
0.0
 12
218369.36453586339
 22
135937.0931105999
 32
0.0
 13
218369.36453586339
 23
135937.0931105999
 33
0.0
210
0.0
220
0.0
230
1.0
  0
SOLID
  5
10BDF
  8
0
  6
CONTINUOUS
 10
218369.36453586339
 20
135937.0931105999
 30
0.0
 11
218369.36453586339
 21
135937.0931105999
 31
0.0
 12
218388.86453586351
 22
135937.0931105999
 32
0.0
 13
218388.86453586351
 23
135937.0931105999
 33
0.0
210
0.0
220
0.0
230
1.0
  0
SOLID
  5
10BE0
  8
0
  6
CONTINUOUS
 10
218289.86453586339
 20
135937.0931105999
 30
0.0
 11
218289.86453586339
 21
135877.0931105999
 31
0.0
 12
218388.86453586351
 22
135877.0931105999
 32
0.0
 13
218388.86453586351
 23
135877.0931105999
 33
0.0
210
0.0
220
0.0
230
1.0
  0
SOLID
  5
10BE1
  8
0
  6
CONTINUOUS
 10
-218289.86453586339
 20
135937.0931105999
 30
0.0
 11
-218388.86453586351
 21
135937.0931105999
 31
0.0
 12
-218388.86453586351
 22
135877.0931105999
 32
0.0
 13
-218388.86453586351
 23
135877.0931105999
 33
0.0
210
0.0
220
0.0
230
-1.0
  0
SOLID
  5
10BE2
  8
0
  6
CONTINUOUS
 10
218289.86453586339
 20
135877.0931105999
 30
0.0
 11
218289.86453586339
 21
135877.0931105999
 31
0.0
 12
218388.86453586351
 22
135877.0931105999
 32
0.0
 13
218388.86453586351
 23
135877.0931105999
 33
0.0
210
0.0
220
0.0
230
1.0
  0
LINE
  5
10BE3
  8
0
  6
CONTINUOUS
 10
218056.86453586351
 20
136347.0931105999
 30
0.0
 11
218349.86453586339
 21
136347.0931105999
 31
0.0
  0
LINE
  5
10BE4
  8
0
  6
CONTINUOUS
 10
218056.86453586351
 20
136347.0931105999
 30
0.0
 11
218056.86453586351
 21
136287.0931105999
 31
0.0
  0
LINE
  5
10BE5
  8
0
  6
CONTINUOUS
 10
218349.86453586339
 20
136347.0931105999
 30
0.0
 11
218349.86453586339
 21
136287.0931105999
 31
0.0
  0
LINE
  5
10BE6
  8
0
  6
CONTINUOUS
 10
218056.86453586351
 20
136287.0931105999
 30
0.0
 11
218289.86453586339
 21
136287.0931105999
 31
0.0
  0
LINE
  5
10BE7
  8
0
  6
CONTINUOUS
 10
218289.86453586339
 20
136287.0931105999
 30
0.0
 11
218289.86453586339
 21
136086.0931105999
 31
0.0
  0
LINE
  5
10BE8
  8
0
  6
CONTINUOUS
 10
218349.86453586339
 20
136287.0931105999
 30
0.0
 11
218349.86453586339
 21
136086.0931105999
 31
0.0
  0
LINE
  5
10BE9
  8
0
  6
CONTINUOUS
 10
218289.86453586339
 20
136086.0931105999
 30
0.0
 11
218289.86453586339
 21
136062.76086637759
 31
0.0
  0
LINE
  5
10BEA
  8
0
  6
CONTINUOUS
 10
218349.86453586339
 20
136086.0931105999
 30
0.0
 11
218349.86453586339
 21
136062.76086637759
 31
0.0
  0
LINE
  5
10BEB
  8
0
  6
CONTINUOUS
 10
218289.86453586339
 20
136062.76086637759
 30
0.0
 11
218289.86453586339
 21
135937.0931105999
 31
0.0
  0
LINE
  5
10BEC
  8
0
  6
CONTINUOUS
 10
218349.86453586339
 20
136062.76086637759
 30
0.0
 11
218349.86453586339
 21
135937.0931105999
 31
0.0
  0
LINE
  5
10BED
  8
0
  6
CONTINUOUS
 10
218349.86453586339
 20
135937.0931105999
 30
0.0
 11
218369.36453586339
 21
135937.0931105999
 31
0.0
  0
LINE
  5
10BEE
  8
0
  6
CONTINUOUS
 10
218369.36453586339
 20
135937.0931105999
 30
0.0
 11
218388.86453586351
 21
135937.0931105999
 31
0.0
  0
LINE
  5
10BEF
  8
0
  6
CONTINUOUS
 10
218289.86453586339
 20
135937.0931105999
 30
0.0
 11
218289.86453586339
 21
135877.0931105999
 31
0.0
  0
LINE
  5
10BF0
  8
0
  6
CONTINUOUS
 10
218388.86453586351
 20
135937.0931105999
 30
0.0
 11
218388.86453586351
 21
135877.0931105999
 31
0.0
  0
LINE
  5
10BF1
  8
0
  6
CONTINUOUS
 10
218289.86453586339
 20
135877.0931105999
 30
0.0
 11
218388.86453586351
 21
135877.0931105999
 31
0.0
  0
ENDBLK
  5
10BF3
  8
0
  0
BLOCK
  8
0
  2
*U33
 70
     1
 10
0.0
 20
0.0
 30
0.0
  3
*U33
  1

  0
SOLID
  5
10BF5
  8
0
  6
CONTINUOUS
 10
217443.86453586339
 20
137087.10311059991
 30
0.0
 11
217443.86453586339
 21
137087.10311059991
 31
0.0
 12
217482.86453586339
 22
137087.10311059991
 32
0.0
 13
217482.86453586339
 23
137087.10311059991
 33
0.0
210
0.0
220
0.0
230
1.0
  0
SOLID
  5
10BF6
  8
0
  6
CONTINUOUS
 10
217443.86453586339
 20
137087.10311059991
 30
0.0
 11
217443.86453586339
 21
137087.0931105999
 31
0.0
 12
217482.86453586339
 22
137087.0931105999
 32
0.0
 13
217482.86453586339
 23
137087.0931105999
 33
0.0
210
0.0
220
0.0
230
1.0
  0
SOLID
  5
10BF7
  8
0
  6
CONTINUOUS
 10
-217443.86453586339
 20
137087.10311059991
 30
0.0
 11
-217482.86453586339
 21
137087.10311059991
 31
0.0
 12
-217482.86453586339
 22
137087.0931105999
 32
0.0
 13
-217482.86453586339
 23
137087.0931105999
 33
0.0
210
0.0
220
0.0
230
-1.0
  0
SOLID
  5
10BF8
  8
0
  6
CONTINUOUS
 10
217482.86453586339
 20
137087.0931105999
 30
0.0
 11
217482.86453586339
 21
137087.0931105999
 31
0.0
 12
217553.86453586351
 22
137087.0931105999
 32
0.0
 13
217553.86453586351
 23
137087.0931105999
 33
0.0
210
0.0
220
0.0
230
1.0
  0
SOLID
  5
10BF9
  8
0
  6
CONTINUOUS
 10
217443.86453586339
 20
137087.0931105999
 30
0.0
 11
217443.86453586351
 21
137067.09311059999
 31
0.0
 12
217553.86453586351
 22
137067.09311059999
 32
0.0
 13
217553.86453586351
 23
137067.09311059999
 33
0.0
  0
SOLID
  5
10BFA
  8
0
  6
CONTINUOUS
 10
-217443.86453586339
 20
137087.0931105999
 30
0.0
 11
-217553.86453586351
 21
137087.0931105999
 31
0.0
 12
-217553.86453586351
 22
137067.09311059999
 32
0.0
 13
-217553.86453586351
 23
137067.09311059999
 33
0.0
210
0.0
220
0.0
230
-1.0
  0
SOLID
  5
10BFB
  8
0
  6
CONTINUOUS
 10
217443.86453586351
 20
137067.09311059999
 30
0.0
 11
217403.86453586339
 21
137027.0931105999
 31
0.0
 12
217553.86453586351
 22
137027.0931105999
 32
0.0
 13
217553.86453586351
 23
137027.0931105999
 33
0.0
  0
SOLID
  5
10BFC
  8
0
  6
CONTINUOUS
 10
-217443.86453586351
 20
137067.09311059999
 30
0.0
 11
-217553.86453586351
 21
137067.09311059999
 31
0.0
 12
-217553.86453586351
 22
137027.0931105999
 32
0.0
 13
-217553.86453586351
 23
137027.0931105999
 33
0.0
210
0.0
220
0.0
230
-1.0
  0
SOLID
  5
10BFD
  8
0
  6
CONTINUOUS
 10
217488.71734960581
 20
137027.0931105999
 30
0.0
 11
217488.71734960581
 21
137027.0931105999
 31
0.0
 12
217553.86453586351
 22
137027.0931105999
 32
0.0
 13
217553.86453586351
 23
137027.0931105999
 33
0.0
210
0.0
220
0.0
230
1.0
  0
SOLID
  5
10BFE
  8
0
  6
CONTINUOUS
 10
217403.86453586339
 20
137027.0931105999
 30
0.0
 11
217361.54220539311
 21
136984.77078012959
 31
0.0
 12
217446.3950191355
 22
136984.77078012959
 32
0.0
 13
217446.3950191355
 23
136984.77078012959
 33
0.0
210
0.0
220
0.0
230
1.0
  0
SOLID
  5
10BFF
  8
0
  6
CONTINUOUS
 10
-217403.86453586339
 20
137027.0931105999
 30
0.0
 11
-217488.71734960581
 21
137027.0931105999
 31
0.0
 12
-217446.3950191355
 22
136984.77078012959
 32
0.0
 13
-217446.3950191355
 23
136984.77078012959
 33
0.0
210
0.0
220
0.0
230
-1.0
  0
SOLID
  5
10C00
  8
0
  6
CONTINUOUS
 10
217361.54220539311
 20
136984.77078012959
 30
0.0
 11
217343.86453586339
 21
136967.09311059999
 31
0.0
 12
217428.71734960581
 22
136967.09311059999
 32
0.0
 13
217428.71734960581
 23
136967.09311059999
 33
0.0
  0
SOLID
  5
10C01
  8
0
  6
CONTINUOUS
 10
-217361.54220539311
 20
136984.77078012959
 30
0.0
 11
-217446.3950191355
 21
136984.77078012959
 31
0.0
 12
-217428.71734960581
 22
136967.09311059999
 32
0.0
 13
-217428.71734960581
 23
136967.09311059999
 33
0.0
210
0.0
220
0.0
230
-1.0
  0
SOLID
  5
10C02
  8
0
  6
CONTINUOUS
 10
217343.86453586339
 20
136967.09311059999
 30
0.0
 11
217343.86453586339
 21
136942.24029685761
 31
0.0
 12
217403.86453586351
 22
136942.24029685761
 32
0.0
 13
217403.86453586351
 23
136942.24029685761
 33
0.0
  0
SOLID
  5
10C03
  8
0
  6
CONTINUOUS
 10
-217343.86453586339
 20
136967.09311059999
 30
0.0
 11
-217428.71734960581
 21
136967.09311059999
 31
0.0
 12
-217403.86453586351
 22
136942.24029685761
 32
0.0
 13
-217403.86453586351
 23
136942.24029685761
 33
0.0
210
0.0
220
0.0
230
-1.0
  0
SOLID
  5
10C04
  8
0
  6
CONTINUOUS
 10
217343.86453586339
 20
136942.24029685761
 30
0.0
 11
217343.86453586339
 21
136942.0931105999
 31
0.0
 12
217403.86453586351
 22
136942.0931105999
 32
0.0
 13
217403.86453586351
 23
136942.0931105999
 33
0.0
  0
SOLID
  5
10C05
  8
0
  6
CONTINUOUS
 10
-217343.86453586339
 20
136942.24029685761
 30
0.0
 11
-217403.86453586351
 21
136942.24029685761
 31
0.0
 12
-217403.86453586351
 22
136942.0931105999
 32
0.0
 13
-217403.86453586351
 23
136942.0931105999
 33
0.0
210
0.0
220
0.0
230
-1.0
  0
SOLID
  5
10C06
  8
0
  6
CONTINUOUS
 10
217343.86453586339
 20
136942.0931105999
 30
0.0
 11
217343.86453586339
 21
136851.94592434241
 31
0.0
 12
217403.86453586339
 22
136851.94592434241
 32
0.0
 13
217403.86453586339
 23
136851.94592434241
 33
0.0
210
0.0
220
0.0
230
1.0
  0
SOLID
  5
10C07
  8
0
  6
CONTINUOUS
 10
-217343.86453586339
 20
136942.0931105999
 30
0.0
 11
-217403.86453586351
 21
136942.0931105999
 31
0.0
 12
-217403.86453586339
 22
136851.94592434241
 32
0.0
 13
-217403.86453586339
 23
136851.94592434241
 33
0.0
210
0.0
220
0.0
230
-1.0
  0
SOLID
  5
10C08
  8
0
  6
CONTINUOUS
 10
217343.86453586339
 20
136851.94592434241
 30
0.0
 11
217343.86453586339
 21
136827.0931105999
 31
0.0
 12
217428.7173496059
 22
136827.0931105999
 32
0.0
 13
217428.7173496059
 23
136827.0931105999
 33
0.0
210
0.0
220
0.0
230
1.0
  0
SOLID
  5
10C09
  8
0
  6
CONTINUOUS
 10
-217343.86453586339
 20
136851.94592434241
 30
0.0
 11
-217403.86453586339
 21
136851.94592434241
 31
0.0
 12
-217428.7173496059
 22
136827.0931105999
 32
0.0
 13
-217428.7173496059
 23
136827.0931105999
 33
0.0
210
0.0
220
0.0
230
-1.0
  0
SOLID
  5
10C0A
  8
0
  6
CONTINUOUS
 10
217343.86453586339
 20
136827.0931105999
 30
0.0
 11
217361.54220539311
 21
136809.4154410703
 31
0.0
 12
217446.39501913561
 22
136809.4154410703
 32
0.0
 13
217446.39501913561
 23
136809.4154410703
 33
0.0
210
0.0
220
0.0
230
1.0
  0
SOLID
  5
10C0B
  8
0
  6
CONTINUOUS
 10
-217343.86453586339
 20
136827.0931105999
 30
0.0
 11
-217428.7173496059
 21
136827.0931105999
 31
0.0
 12
-217446.39501913561
 22
136809.4154410703
 32
0.0
 13
-217446.39501913561
 23
136809.4154410703
 33
0.0
210
0.0
220
0.0
230
-1.0
  0
SOLID
  5
10C0C
  8
0
  6
CONTINUOUS
 10
217361.54220539311
 20
136809.4154410703
 30
0.0
 11
217419.01172212089
 21
136751.94592434241
 31
0.0
 12
217503.86453586339
 22
136751.94592434241
 32
0.0
 13
217503.86453586339
 23
136751.94592434241
 33
0.0
210
0.0
220
0.0
230
1.0
  0
SOLID
  5
10C0D
  8
0
  6
CONTINUOUS
 10
-217361.54220539311
 20
136809.4154410703
 30
0.0
 11
-217446.39501913561
 21
136809.4154410703
 31
0.0
 12
-217503.86453586339
 22
136751.94592434241
 32
0.0
 13
-217503.86453586339
 23
136751.94592434241
 33
0.0
210
0.0
220
0.0
230
-1.0
  0
SOLID
  5
10C0E
  8
0
  6
CONTINUOUS
 10
217419.01172212089
 20
136751.94592434241
 30
0.0
 11
217443.86453586339
 21
136727.0931105999
 31
0.0
 12
217503.86453586339
 22
136727.0931105999
 32
0.0
 13
217503.86453586339
 23
136727.0931105999
 33
0.0
210
0.0
220
0.0
230
1.0
  0
SOLID
  5
10C0F
  8
0
  6
CONTINUOUS
 10
-217419.01172212089
 20
136751.94592434241
 30
0.0
 11
-217503.86453586339
 21
136751.94592434241
 31
0.0
 12
-217503.86453586339
 22
136727.0931105999
 32
0.0
 13
-217503.86453586339
 23
136727.0931105999
 33
0.0
210
0.0
220
0.0
230
-1.0
  0
SOLID
  5
10C10
  8
0
  6
CONTINUOUS
 10
217443.86453586339
 20
136727.0931105999
 30
0.0
 11
217443.86453586339
 21
136641.0931105999
 31
0.0
 12
217503.86453586339
 22
136641.0931105999
 32
0.0
 13
217503.86453586339
 23
136641.0931105999
 33
0.0
210
0.0
220
0.0
230
1.0
  0
SOLID
  5
10C11
  8
0
  6
CONTINUOUS
 10
-217443.86453586339
 20
136727.0931105999
 30
0.0
 11
-217503.86453586339
 21
136727.0931105999
 31
0.0
 12
-217503.86453586339
 22
136641.0931105999
 32
0.0
 13
-217503.86453586339
 23
136641.0931105999
 33
0.0
210
0.0
220
0.0
230
-1.0
  0
SOLID
  5
10C12
  8
0
  6
CONTINUOUS
 10
217443.86453586339
 20
136641.0931105999
 30
0.0
 11
217443.86453586339
 21
136347.0931105999
 31
0.0
 12
217503.86453586339
 22
136347.0931105999
 32
0.0
 13
217503.86453586339
 23
136347.0931105999
 33
0.0
210
0.0
220
0.0
230
1.0
  0
SOLID
  5
10C13
  8
0
  6
CONTINUOUS
 10
-217443.86453586339
 20
136641.0931105999
 30
0.0
 11
-217503.86453586339
 21
136641.0931105999
 31
0.0
 12
-217503.86453586339
 22
136347.0931105999
 32
0.0
 13
-217503.86453586339
 23
136347.0931105999
 33
0.0
210
0.0
220
0.0
230
-1.0
  0
SOLID
  5
10C14
  8
0
  6
CONTINUOUS
 10
217503.86453586339
 20
136347.0931105999
 30
0.0
 11
217503.86453586339
 21
136347.0931105999
 31
0.0
 12
217530.3781717949
 22
136347.0931105999
 32
0.0
 13
217530.3781717949
 23
136347.0931105999
 33
0.0
210
0.0
220
0.0
230
1.0
  0
SOLID
  5
10C15
  8
0
  6
CONTINUOUS
 10
217530.3781717949
 20
136347.0931105999
 30
0.0
 11
217530.3781717949
 21
136347.0931105999
 31
0.0
 12
217916.86453586351
 22
136347.0931105999
 32
0.0
 13
217916.86453586351
 23
136347.0931105999
 33
0.0
210
0.0
220
0.0
230
1.0
  0
SOLID
  5
10C16
  8
0
  6
CONTINUOUS
 10
217443.86453586339
 20
136347.0931105999
 30
0.0
 11
217443.86453586339
 21
136287.0931105999
 31
0.0
 12
217916.86453586339
 22
136287.0931105999
 32
0.0
 13
217916.86453586339
 23
136287.0931105999
 33
0.0
  0
SOLID
  5
10C17
  8
0
  6
CONTINUOUS
 10
-217443.86453586339
 20
136347.0931105999
 30
0.0
 11
-217916.86453586351
 21
136347.0931105999
 31
0.0
 12
-217916.86453586339
 22
136287.0931105999
 32
0.0
 13
-217916.86453586339
 23
136287.0931105999
 33
0.0
210
0.0
220
0.0
230
-1.0
  0
SOLID
  5
10C18
  8
0
  6
CONTINUOUS
 10
217443.86453586339
 20
136287.0931105999
 30
0.0
 11
217443.86453586339
 21
136287.0931105999
 31
0.0
 12
217550.86453586339
 22
136287.0931105999
 32
0.0
 13
217550.86453586339
 23
136287.0931105999
 33
0.0
210
0.0
220
0.0
230
1.0
  0
SOLID
  5
10C19
  8
0
  6
CONTINUOUS
 10
217550.86453586339
 20
136287.0931105999
 30
0.0
 11
217550.86453586339
 21
136287.0931105999
 31
0.0
 12
217916.86453586339
 22
136287.0931105999
 32
0.0
 13
217916.86453586339
 23
136287.0931105999
 33
0.0
210
0.0
220
0.0
230
1.0
  0
LINE
  5
10C1A
  8
0
  6
CONTINUOUS
 10
217443.86453586339
 20
137087.10311059991
 30
0.0
 11
217482.86453586339
 21
137087.10311059991
 31
0.0
  0
LINE
  5
10C1B
  8
0
  6
CONTINUOUS
 10
217443.86453586339
 20
137087.10311059991
 30
0.0
 11
217443.86453586339
 21
137087.0931105999
 31
0.0
  0
LINE
  5
10C1C
  8
0
  6
CONTINUOUS
 10
217482.86453586339
 20
137087.10311059991
 30
0.0
 11
217482.86453586339
 21
137087.0931105999
 31
0.0
  0
LINE
  5
10C1D
  8
0
  6
CONTINUOUS
 10
217482.86453586339
 20
137087.0931105999
 30
0.0
 11
217553.86453586351
 21
137087.0931105999
 31
0.0
  0
LINE
  5
10C1E
  8
0
  6
CONTINUOUS
 10
217443.86453586339
 20
137087.0931105999
 30
0.0
 11
217443.86453586351
 21
137067.09311059999
 31
0.0
  0
LINE
  5
10C1F
  8
0
  6
CONTINUOUS
 10
217553.86453586351
 20
137087.0931105999
 30
0.0
 11
217553.86453586351
 21
137067.09311059999
 31
0.0
  0
LINE
  5
10C20
  8
0
  6
CONTINUOUS
 10
217443.86453586351
 20
137067.09311059999
 30
0.0
 11
217403.86453586339
 21
137027.0931105999
 31
0.0
  0
LINE
  5
10C21
  8
0
  6
CONTINUOUS
 10
217553.86453586351
 20
137067.09311059999
 30
0.0
 11
217553.86453586351
 21
137027.0931105999
 31
0.0
  0
LINE
  5
10C22
  8
0
  6
CONTINUOUS
 10
217488.71734960581
 20
137027.0931105999
 30
0.0
 11
217553.86453586351
 21
137027.0931105999
 31
0.0
  0
LINE
  5
10C23
  8
0
  6
CONTINUOUS
 10
217403.86453586339
 20
137027.0931105999
 30
0.0
 11
217361.54220539311
 21
136984.77078012959
 31
0.0
  0
LINE
  5
10C24
  8
0
  6
CONTINUOUS
 10
217488.71734960581
 20
137027.0931105999
 30
0.0
 11
217446.3950191355
 21
136984.77078012959
 31
0.0
  0
LINE
  5
10C25
  8
0
  6
CONTINUOUS
 10
217361.54220539311
 20
136984.77078012959
 30
0.0
 11
217343.86453586339
 21
136967.09311059999
 31
0.0
  0
LINE
  5
10C26
  8
0
  6
CONTINUOUS
 10
217446.3950191355
 20
136984.77078012959
 30
0.0
 11
217428.71734960581
 21
136967.09311059999
 31
0.0
  0
LINE
  5
10C27
  8
0
  6
CONTINUOUS
 10
217343.86453586339
 20
136967.09311059999
 30
0.0
 11
217343.86453586339
 21
136942.24029685761
 31
0.0
  0
LINE
  5
10C28
  8
0
  6
CONTINUOUS
 10
217428.71734960581
 20
136967.09311059999
 30
0.0
 11
217403.86453586351
 21
136942.24029685761
 31
0.0
  0
LINE
  5
10C29
  8
0
  6
CONTINUOUS
 10
217343.86453586339
 20
136942.24029685761
 30
0.0
 11
217343.86453586339
 21
136942.0931105999
 31
0.0
  0
LINE
  5
10C2A
  8
0
  6
CONTINUOUS
 10
217403.86453586351
 20
136942.24029685761
 30
0.0
 11
217403.86453586351
 21
136942.0931105999
 31
0.0
  0
LINE
  5
10C2B
  8
0
  6
CONTINUOUS
 10
217343.86453586339
 20
136942.0931105999
 30
0.0
 11
217343.86453586339
 21
136851.94592434241
 31
0.0
  0
LINE
  5
10C2C
  8
0
  6
CONTINUOUS
 10
217403.86453586351
 20
136942.0931105999
 30
0.0
 11
217403.86453586339
 21
136851.94592434241
 31
0.0
  0
LINE
  5
10C2D
  8
0
  6
CONTINUOUS
 10
217343.86453586339
 20
136851.94592434241
 30
0.0
 11
217343.86453586339
 21
136827.0931105999
 31
0.0
  0
LINE
  5
10C2E
  8
0
  6
CONTINUOUS
 10
217403.86453586339
 20
136851.94592434241
 30
0.0
 11
217428.7173496059
 21
136827.0931105999
 31
0.0
  0
LINE
  5
10C2F
  8
0
  6
CONTINUOUS
 10
217343.86453586339
 20
136827.0931105999
 30
0.0
 11
217361.54220539311
 21
136809.4154410703
 31
0.0
  0
LINE
  5
10C30
  8
0
  6
CONTINUOUS
 10
217428.7173496059
 20
136827.0931105999
 30
0.0
 11
217446.39501913561
 21
136809.4154410703
 31
0.0
  0
LINE
  5
10C31
  8
0
  6
CONTINUOUS
 10
217361.54220539311
 20
136809.4154410703
 30
0.0
 11
217419.01172212089
 21
136751.94592434241
 31
0.0
  0
LINE
  5
10C32
  8
0
  6
CONTINUOUS
 10
217446.39501913561
 20
136809.4154410703
 30
0.0
 11
217503.86453586339
 21
136751.94592434241
 31
0.0
  0
LINE
  5
10C33
  8
0
  6
CONTINUOUS
 10
217419.01172212089
 20
136751.94592434241
 30
0.0
 11
217443.86453586339
 21
136727.0931105999
 31
0.0
  0
LINE
  5
10C34
  8
0
  6
CONTINUOUS
 10
217503.86453586339
 20
136751.94592434241
 30
0.0
 11
217503.86453586339
 21
136727.0931105999
 31
0.0
  0
LINE
  5
10C35
  8
0
  6
CONTINUOUS
 10
217443.86453586339
 20
136727.0931105999
 30
0.0
 11
217443.86453586339
 21
136641.0931105999
 31
0.0
  0
LINE
  5
10C36
  8
0
  6
CONTINUOUS
 10
217503.86453586339
 20
136727.0931105999
 30
0.0
 11
217503.86453586339
 21
136641.0931105999
 31
0.0
  0
LINE
  5
10C37
  8
0
  6
CONTINUOUS
 10
217443.86453586339
 20
136641.0931105999
 30
0.0
 11
217443.86453586339
 21
136347.0931105999
 31
0.0
  0
LINE
  5
10C38
  8
0
  6
CONTINUOUS
 10
217503.86453586339
 20
136641.0931105999
 30
0.0
 11
217503.86453586339
 21
136347.0931105999
 31
0.0
  0
LINE
  5
10C39
  8
0
  6
CONTINUOUS
 10
217503.86453586339
 20
136347.0931105999
 30
0.0
 11
217530.3781717949
 21
136347.0931105999
 31
0.0
  0
LINE
  5
10C3A
  8
0
  6
CONTINUOUS
 10
217530.3781717949
 20
136347.0931105999
 30
0.0
 11
217916.86453586351
 21
136347.0931105999
 31
0.0
  0
LINE
  5
10C3B
  8
0
  6
CONTINUOUS
 10
217443.86453586339
 20
136347.0931105999
 30
0.0
 11
217443.86453586339
 21
136287.0931105999
 31
0.0
  0
LINE
  5
10C3C
  8
0
  6
CONTINUOUS
 10
217916.86453586351
 20
136347.0931105999
 30
0.0
 11
217916.86453586339
 21
136287.0931105999
 31
0.0
  0
LINE
  5
10C3D
  8
0
  6
CONTINUOUS
 10
217443.86453586339
 20
136287.0931105999
 30
0.0
 11
217550.86453586339
 21
136287.0931105999
 31
0.0
  0
LINE
  5
10C3E
  8
0
  6
CONTINUOUS
 10
217550.86453586339
 20
136287.0931105999
 30
0.0
 11
217916.86453586339
 21
136287.0931105999
 31
0.0
  0
ENDBLK
  5
10C40
  8
0
  0
BLOCK
  8
0
  2
*U34
 70
     1
 10
0.0
 20
0.0
 30
0.0
  3
*U34
  1

  0
TEXT
  5
10C42
  8
0WYMIARY-PL
 62
    10
 10
216929.3310883386
 20
137206.80739631431
 30
0.0
 40
80.0
  1
60
 50
90.0
 41
0.9
  7
ROMANS
  0
ENDBLK
  5
10C44
  8
0
  0
BLOCK
  8
0
  2
*U35
 70
     1
 10
0.0
 20
0.0
 30
0.0
  3
*U35
  1

  0
TEXT
  5
10C46
  8
0WYMIARY-PL
 62
    10
 10
216929.3310883386
 20
136664.23596774289
 30
0.0
 40
80.0
  1
960
 50
90.0
 41
0.9
  7
ROMANS
  0
ENDBLK
  5
10C48
  8
0
  0
BLOCK
  8
0
  2
*U36
 70
     1
 10
0.0
 20
0.0
 30
0.0
  3
*U36
  1

  0
TEXT
  5
10C4A
  8
0WYMIARY-PL
 62
    10
 10
216929.3310883386
 20
135979.23596774289
 30
0.0
 40
80.0
  1
410
 50
90.0
 41
0.9
  7
ROMANS
  0
ENDBLK
  5
10C4C
  8
0
  0
BLOCK
  8
0
  2
*U37
 70
     1
 10
0.0
 20
0.0
 30
0.0
  3
*U37
  1

  0
TEXT
  5
10C4E
  8
0WYMIARY-PL
 62
    10
 10
217285.86453586339
 20
137776.3748068978
 30
0.0
 40
80.0
  1
100
 41
0.9
  7
ROMANS
  0
ENDBLK
  5
10C50
  8
0
  0
BLOCK
  8
0
  2
*U38
 70
     1
 10
0.0
 20
0.0
 30
0.0
  3
*U38
  1

  0
TEXT
  5
10C52
  8
0WYMIARY-PL
 62
    10
 10
217926.86453586339
 20
137776.3748068978
 30
0.0
 40
80.0
  1
1254
 41
0.9
  7
ROMANS
  0
ENDBLK
  5
10C54
  8
0
  0
BLOCK
  8
0
  2
*U39
 70
     1
 10
0.0
 20
0.0
 30
0.0
  3
*U39
  1

  0
TEXT
  5
10C56
  8
0WYMIARY-PL
 62
    10
 10
218720.00739300629
 20
137776.3748068978
 30
0.0
 40
80.0
  1
250
 41
0.9
  7
ROMANS
  0
ENDBLK
  5
10C58
  8
0
  0
BLOCK
  8
0
  2
*U40
 70
     1
 10
0.0
 20
0.0
 30
0.0
  3
*U40
  1

  0
TEXT
  5
10C5A
  8
0WYMIARY-PL
 62
    10
 10
218001.86453586339
 20
138026.1169952362
 30
0.0
 40
80.0
  1
1604
 41
0.9
  7
ROMANS
  0
ENDBLK
  5
10C5C
  8
0
  0
BLOCK
  8
0
  2
*U41
 70
     1
 10
0.0
 20
0.0
 30
0.0
  3
*U41
  1

  0
TEXT
  5
10C5E
  8
0WYMIARY-PL
 62
    10
 10
216666.141947753
 20
136449.80739631431
 30
0.0
 40
80.0
  1
1430
 50
90.0
 41
0.9
  7
ROMANS
  0
ENDBLK
  5
10C60
  8
0
  0
BLOCK
  8
0
  2
*U42
 70
     1
 10
0.0
 20
0.0
 30
0.0
  3
*U42
  1

  0
TEXT
  5
10C62
  8
0WYMIARY-PL
 62
    10
 10
223790.44740140639
 20
137206.80739631431
 30
0.0
 40
80.0
  1
60
 50
90.0
 41
0.9
  7
ROMANS
  0
ENDBLK
  5
10C64
  8
0
  0
BLOCK
  8
0
  2
*U43
 70
     1
 10
0.0
 20
0.0
 30
0.0
  3
*U43
  1

  0
TEXT
  5
10C66
  8
0WYMIARY-PL
 62
    10
 10
223790.44740140639
 20
136664.23596774289
 30
0.0
 40
80.0
  1
960
 50
90.0
 41
0.9
  7
ROMANS
  0
ENDBLK
  5
10C68
  8
0
  0
BLOCK
  8
0
  2
*U44
 70
     1
 10
0.0
 20
0.0
 30
0.0
  3
*U44
  1

  0
TEXT
  5
10C6A
  8
0WYMIARY-PL
 62
    10
 10
223790.44740140639
 20
135979.23596774289
 30
0.0
 40
80.0
  1
410
 50
90.0
 41
0.9
  7
ROMANS
  0
ENDBLK
  5
10C6C
  8
0
  0
BLOCK
  8
0
  2
*U45
 70
     1
 10
0.0
 20
0.0
 30
0.0
  3
*U45
  1

  0
TEXT
  5
10C6E
  8
0WYMIARY-PL
 62
    10
 10
223297.91395388171
 20
137776.3748068978
 30
0.0
 40
80.0
  1
100
 41
0.9
  7
ROMANS
  0
ENDBLK
  5
10C70
  8
0
  0
BLOCK
  8
0
  2
*U46
 70
     1
 10
0.0
 20
0.0
 30
0.0
  3
*U46
  1

  0
TEXT
  5
10C72
  8
0WYMIARY-PL
 62
    10
 10
222584.91395388159
 20
137776.3748068978
 30
0.0
 40
80.0
  1
1254
 41
0.9
  7
ROMANS
  0
ENDBLK
  5
10C74
  8
0
  0
BLOCK
  8
0
  2
*U47
 70
     1
 10
0.0
 20
0.0
 30
0.0
  3
*U47
  1

  0
TEXT
  5
10C76
  8
0WYMIARY-PL
 62
    10
 10
221874.05681102449
 20
137776.3748068978
 30
0.0
 40
80.0
  1
250
 41
0.9
  7
ROMANS
  0
ENDBLK
  5
10C78
  8
0
  0
BLOCK
  8
0
  2
*U48
 70
     1
 10
0.0
 20
0.0
 30
0.0
  3
*U48
  1

  0
TEXT
  5
10C7A
  8
0WYMIARY-PL
 62
    10
 10
222509.91395388159
 20
138026.1169952362
 30
0.0
 40
80.0
  1
1604
 41
0.9
  7
ROMANS
  0
ENDBLK
  5
10C7C
  8
0
  0
BLOCK
  8
0
  2
*U49
 70
     1
 10
0.0
 20
0.0
 30
0.0
  3
*U49
  1

  0
TEXT
  5
10C7E
  8
0WYMIARY-PL
 62
    10
 10
224053.63654199199
 20
136449.80739631431
 30
0.0
 40
80.0
  1
1430
 50
90.0
 41
0.9
  7
ROMANS
  0
ENDBLK
  5
10C80
  8
0
  0
ENDSEC
  0
SECTION
  2
ENTITIES
  0
LINE
  5
1063E
  8
0
  6
BYBLOCK
 10
217429.3239513236
 20
137052.55252606011
 30
0.0
 11
217438.86453586339
 21
137062.09311059999
 31
0.0
  0
LINE
  5
10643
  8
0
 10
218663.86453586339
 20
137247.0931105999
 30
0.0
 11
218663.86453586339
 21
137483.230763648
 31
0.0
  0
LINE
  5
10644
  8
0
 10
218663.86453586339
 20
137403.23076364791
 30
0.0
 11
218497.86453586351
 21
137403.23076364791
 31
0.0
  0
LINE
  5
10647
  8
0
  6
BYBLOCK
 10
218269.4729701801
 20
137569.62517825869
 30
0.0
 11
218254.69801808099
 21
137511.45749876459
 31
0.0
  0
ARC
  5
10648
  8
0
 10
218021.0314344308
 20
136672.77142101451
 30
0.0
 40
870.62874368266012
 50
74.431615165142986
 51
114.3658301645342
  0
ARC
  5
10649
  8
0
 10
218021.0314344308
 20
136672.77142101451
 30
0.0
 40
930.62874368265557
 50
114.28095086143151
 51
149.29937723636709
  0
LINE
  5
1064A
  8
0
  6
BYBLOCK
 10
217265.60174753069
 20
137216.274729853
 30
0.0
 11
217429.3239513236
 21
137052.55252606011
 31
0.0
  0
LINE
  5
1064C
  8
0
 10
217220.83335948439
 20
137147.90603290941
 30
0.0
 11
217372.7554088287
 21
136995.98398356521
 31
0.0
  0
LINE
  5
10652
  8
0
 10
218663.86453586339
 20
137483.230763648
 30
0.0
 11
218517.86453586339
 21
137483.230763648
 31
0.0
  0
LINE
  5
10653
  8
0
  6
BYBLOCK
 10
218517.86453586339
 20
137483.230763648
 30
0.0
 11
218517.86453586339
 21
137403.23076364791
 31
0.0
  0
LINE
  5
10659
  8
0
 10
218235.3701398964
 20
137516.60394507711
 30
0.0
 11
218255.06521263751
 21
137594.1417043285
 31
0.0
  0
ARC
  5
1065A
  8
0
 10
218021.0314344308
 20
136672.77142101451
 30
0.0
 40
950.62874368265705
 50
75.747924104569236
 51
113.0495212242204
  0
LINE
  5
1065B
  8
0
 10
217648.83501115281
 20
137547.50842767119
 30
0.0
 11
217680.157137756
 21
137473.89508387371
 31
0.0
  0
LINE
  5
10660
  8
0
  6
BYBLOCK
 10
217748.86453586339
 20
137247.0931105999
 30
0.0
 11
217848.86453586339
 21
137247.0931105999
 31
0.0
  0
LINE
  5
10664
  8
0
 10
218663.86453586339
 20
137443.23076364791
 30
0.0
 11
218517.86453586339
 21
137443.23076364791
 31
0.0
  0
LINE
  5
10666
  8
0
  6
BYBLOCK
 10
218517.86453586339
 20
137403.23076364791
 30
0.0
 11
218497.86453586351
 21
137403.23076364791
 31
0.0
  0
LINE
  5
10667
  8
0
  6
BYBLOCK
 10
218497.86453586351
 20
137403.23076364791
 30
0.0
 11
218497.86453586351
 21
137471.9545777514
 31
0.0
  0
ARC
  5
10668
  8
0
  6
BYBLOCK
 10
218021.09479052341
 20
136672.95199699511
 30
0.0
 40
930.43780776946517
 50
59.175213018798772
 51
74.5172857628977
  0
LINE
  5
10669
  8
0
 10
218269.4729701801
 20
137569.62517825869
 30
0.0
 11
218254.69801808099
 21
137511.45749876459
 31
0.0
  0
LINE
  5
1066A
  8
0
 10
218254.69801808099
 20
137511.45749876459
 30
0.0
 11
218235.3701398964
 21
137516.60394507711
 31
0.0
  0
ARC
  5
1066C
  8
0
 10
218021.0314344308
 20
136672.77142101451
 30
0.0
 40
910.62874368266284
 50
75.747924104569236
 51
113.0495212242204
  0
LINE
  5
1066D
  8
0
 10
217664.49607445439
 20
137510.70175577249
 30
0.0
 11
217680.157137756
 21
137473.89508387371
 31
0.0
  0
LINE
  5
1066E
  8
0
 10
217680.157137756
 20
137473.89508387371
 30
0.0
 11
217661.84375478639
 21
137465.85314449461
 31
0.0
  0
LINE
  5
1066F
  8
0
 10
217661.84375478639
 20
137465.85314449461
 30
0.0
 11
217638.34635895089
 21
137521.07678559341
 31
0.0
  0
LINE
  5
10671
  8
0
 10
217242.56929821521
 20
137182.7386366736
 30
0.0
 11
217401.03968007621
 21
137024.2682548126
 31
0.0
  0
LINE
  5
10672
  8
0
 10
217851.86453586339
 20
136167.0931105999
 30
0.0
 11
218105.86453586339
 21
136167.0931105999
 31
0.0
  0
LINE
  5
10673
  8
0
 10
218105.86453586339
 20
136167.0931105999
 30
0.0
 11
218105.86453586339
 21
136287.0931105999
 31
0.0
  0
LINE
  5
10674
  8
0
 10
217851.86453586339
 20
136287.0931105999
 30
0.0
 11
217851.86453586339
 21
136167.0931105999
 31
0.0
  0
3DFACE
  5
10675
  8
0
 10
217851.86453586339
 20
136167.0931105999
 30
0.0
 11
217851.86453586339
 21
136287.0931105999
 31
0.0
 12
217851.86453586339
 22
136287.0931105999
 32
0.0
 13
217851.86453586339
 23
136167.0931105999
 33
0.0
  0
3DFACE
  5
10676
  8
0
 10
218105.86453586339
 20
136287.0931105999
 30
0.0
 11
218105.86453586339
 21
136167.0931105999
 31
0.0
 12
218105.86453586339
 22
136167.0931105999
 32
0.0
 13
218105.86453586339
 23
136287.0931105999
 33
0.0
  0
3DFACE
  5
10677
  8
0
 10
218105.86453586339
 20
136167.0931105999
 30
0.0
 11
217851.86453586339
 21
136167.0931105999
 31
0.0
 12
217851.86453586339
 22
136167.0931105999
 32
0.0
 13
218105.86453586339
 23
136167.0931105999
 33
0.0
  0
LINE
  5
10678
  8
0
 10
217811.86453586339
 20
136127.0931105999
 30
0.0
 11
218145.86453586351
 21
136127.0931105999
 31
0.0
  0
LINE
  5
10679
  8
0
 10
218145.86453586351
 20
136127.0931105999
 30
0.0
 11
218145.86453586351
 21
136287.0931105999
 31
0.0
  0
LINE
  5
1067A
  8
0
 10
217811.86453586339
 20
136287.0931105999
 30
0.0
 11
217811.86453586339
 21
136127.0931105999
 31
0.0
  0
3DFACE
  5
1067B
  8
0
 10
217811.86453586339
 20
136127.0931105999
 30
0.0
 11
217811.86453586339
 21
136287.0931105999
 31
0.0
 12
217811.86453586339
 22
136287.0931105999
 32
0.0
 13
217811.86453586339
 23
136127.0931105999
 33
0.0
  0
3DFACE
  5
1067C
  8
0
 10
218145.86453586351
 20
136287.0931105999
 30
0.0
 11
218145.86453586351
 21
136127.0931105999
 31
0.0
 12
218145.86453586351
 22
136127.0931105999
 32
0.0
 13
218145.86453586351
 23
136287.0931105999
 33
0.0
  0
3DFACE
  5
1067D
  8
0
 10
218145.86453586351
 20
136127.0931105999
 30
0.0
 11
217811.86453586339
 21
136127.0931105999
 31
0.0
 12
217811.86453586339
 22
136127.0931105999
 32
0.0
 13
218145.86453586351
 23
136127.0931105999
 33
0.0
  0
LINE
  5
1067E
  8
0
 10
217771.86453586339
 20
136087.0931105999
 30
0.0
 11
218185.86453586351
 21
136087.0931105999
 31
0.0
  0
LINE
  5
1067F
  8
0
 10
218185.86453586351
 20
136087.0931105999
 30
0.0
 11
218185.86453586351
 21
136287.0931105999
 31
0.0
  0
LINE
  5
10680
  8
0
 10
217771.86453586339
 20
136287.0931105999
 30
0.0
 11
217771.86453586339
 21
136087.0931105999
 31
0.0
  0
3DFACE
  5
10681
  8
0
 10
217771.86453586339
 20
136087.0931105999
 30
0.0
 11
217771.86453586339
 21
136287.0931105999
 31
0.0
 12
217771.86453586339
 22
136287.0931105999
 32
0.0
 13
217771.86453586339
 23
136087.0931105999
 33
0.0
  0
3DFACE
  5
10682
  8
0
 10
218185.86453586351
 20
136287.0931105999
 30
0.0
 11
218185.86453586351
 21
136087.0931105999
 31
0.0
 12
218185.86453586351
 22
136087.0931105999
 32
0.0
 13
218185.86453586351
 23
136287.0931105999
 33
0.0
  0
3DFACE
  5
10683
  8
0
 10
218185.86453586351
 20
136087.0931105999
 30
0.0
 11
217771.86453586339
 21
136087.0931105999
 31
0.0
 12
217771.86453586339
 22
136087.0931105999
 32
0.0
 13
218185.86453586351
 23
136087.0931105999
 33
0.0
  0
LINE
  5
10684
  8
0
 10
218329.86453586339
 20
135797.0931105999
 30
47.0
 11
218907.86453586339
 21
135797.0931105999
 31
47.0
  0
LINE
  5
10685
  8
0
 10
218907.86453586339
 20
135797.0931105999
 30
47.0
 11
218907.86453586339
 21
135877.0931105999
 31
47.0
  0
LINE
  5
10686
  8
0
 10
218329.86453586339
 20
135877.0931105999
 30
47.0
 11
218329.86453586339
 21
135797.0931105999
 31
47.0
  0
3DFACE
  5
10687
  8
0
 10
218329.86453586339
 20
135797.0931105999
 30
47.0
 11
218329.86453586339
 21
135877.0931105999
 31
47.0
 12
218329.86453586339
 22
135877.0931105999
 32
47.0
 13
218329.86453586339
 23
135797.0931105999
 33
47.0
  0
3DFACE
  5
10688
  8
0
 10
218907.86453586339
 20
135877.0931105999
 30
47.0
 11
218907.86453586339
 21
135797.0931105999
 31
47.0
 12
218907.86453586339
 22
135797.0931105999
 32
47.0
 13
218907.86453586339
 23
135877.0931105999
 33
47.0
  0
3DFACE
  5
10689
  8
0
 10
218907.86453586339
 20
135797.0931105999
 30
47.0
 11
218329.86453586339
 21
135797.0931105999
 31
47.0
 12
218329.86453586339
 22
135797.0931105999
 32
47.0
 13
218907.86453586339
 23
135797.0931105999
 33
47.0
  0
LINE
  5
106F9
  8
0
  6
BYBLOCK
 10
217482.86453586339
 20
137208.0931105999
 30
0.0
 11
217482.86453586339
 21
137247.0931105999
 31
0.0
  0
LINE
  5
106FA
  8
0
  6
BYBLOCK
 10
217482.86453586339
 20
137247.0931105999
 30
0.0
 11
217443.86453586339
 21
137247.0931105999
 31
0.0
  0
LINE
  5
106FB
  8
0
  6
BYBLOCK
 10
217443.86453586339
 20
137247.0931105999
 30
0.0
 11
217443.86453586339
 21
137208.0931105999
 31
0.0
  0
LINE
  5
106FC
  8
0
  6
BYBLOCK
 10
217443.86453586339
 20
137208.0931105999
 30
0.0
 11
217482.86453586339
 21
137208.0931105999
 31
0.0
  0
LINE
  5
10711
  8
0
  6
BYBLOCK
 10
217443.86453586339
 20
136287.0931105999
 30
0.0
 11
217443.86453586339
 21
136727.09311059999
 31
0.0
  0
LINE
  5
10717
  8
0
  6
BYBLOCK
 10
218056.86453586351
 20
136347.0931105999
 30
0.0
 11
218056.86453586351
 21
136287.0931105999
 31
0.0
  0
LINE
  5
10718
  8
0
  6
BYBLOCK
 10
218056.86453586351
 20
136287.0931105999
 30
0.0
 11
218289.86453586339
 21
136287.0931105999
 31
0.0
  0
LINE
  5
1071B
  8
0
  6
BYBLOCK
 10
217916.86453586339
 20
136287.0931105999
 30
0.0
 11
217916.86453586351
 21
136347.0931105999
 31
0.0
  0
LINE
  5
10720
  8
0
  6
BYBLOCK
 10
217443.86453586339
 20
136287.0931105999
 30
0.0
 11
217916.86453586339
 21
136287.0931105999
 31
0.0
  0
LINE
  5
10724
  8
0
  6
BYBLOCK
 10
218289.86453586339
 20
135877.0931105999
 30
0.0
 11
218289.86453586339
 21
136287.0931105999
 31
0.0
  0
LINE
  5
10729
  8
0
  6
BYBLOCK
 10
218848.86453586339
 20
135877.0931105999
 30
0.0
 11
218848.86453586339
 21
135937.0931105999
 31
0.0
  0
LINE
  5
1072C
  8
0
  6
BYBLOCK
 10
218289.86453586339
 20
135877.0931105999
 30
0.0
 11
218388.86453586351
 21
135877.0931105999
 31
0.0
  0
LINE
  5
1072D
  8
0
  6
BYBLOCK
 10
218388.86453586351
 20
135877.0931105999
 30
0.0
 11
218388.86453586351
 21
135937.0931105999
 31
0.0
  0
LINE
  5
10734
  8
0
  6
BYBLOCK
 10
218947.86453586339
 20
135877.0931105999
 30
0.0
 11
218947.86453586339
 21
136859.09311059999
 31
0.0
  0
LINE
  5
1073A
  8
0
  6
BYBLOCK
 10
218753.86453586339
 20
136799.09311059999
 30
0.0
 11
218753.86453586339
 21
136859.0931105999
 31
0.0
  0
LINE
  5
1073B
  8
0
  6
BYBLOCK
 10
218753.86453586339
 20
136859.0931105999
 30
0.0
 11
218697.86453586339
 21
136859.0931105999
 31
0.0
  0
LINE
  5
1073D
  8
0
  6
BYBLOCK
 10
218947.86453586339
 20
136859.0931105999
 30
0.0
 11
218843.86453586351
 21
136859.0931105999
 31
0.0
  0
LINE
  5
1073E
  8
0
  6
BYBLOCK
 10
218843.86453586351
 20
136859.0931105999
 30
0.0
 11
218843.86453586351
 21
136799.09311059999
 31
0.0
  0
LINE
  5
10763
  8
0
  6
BYBLOCK
 10
217935.86453586351
 20
137247.0931105999
 30
0.0
 11
217935.86453586339
 21
137307.0931105999
 31
0.0
  0
LINE
  5
10764
  8
0
  6
BYBLOCK
 10
217935.86453586339
 20
137307.0931105999
 30
0.0
 11
217848.86453586339
 21
137307.0931105999
 31
0.0
  0
LINE
  5
10766
  8
0
  6
BYBLOCK
 10
218292.86453586339
 20
137307.0931105999
 30
0.0
 11
218205.86453586351
 21
137307.0931105999
 31
0.0
  0
LINE
  5
10767
  8
0
  6
BYBLOCK
 10
218205.86453586351
 20
137307.0931105999
 30
0.0
 11
218205.86453586351
 21
137247.0931105999
 31
0.0
  0
LINE
  5
10769
  8
0
  6
BYBLOCK
 10
218292.86453586339
 20
137247.0931105999
 30
0.0
 11
218292.86453586339
 21
137307.0931105999
 31
0.0
  0
LINE
  5
1076B
  8
0
  6
BYBLOCK
 10
217848.86453586339
 20
137307.0931105999
 30
0.0
 11
217848.86453586339
 21
137247.0931105999
 31
0.0
  0
LINE
  5
1076E
  8
0
  6
BYBLOCK
 10
218402.86453586351
 20
137187.0931105999
 30
0.0
 11
218402.86453586351
 21
137247.0931105999
 31
0.0
  0
LINE
  5
1076F
  8
0
  6
BYBLOCK
 10
218402.86453586351
 20
137247.0931105999
 30
0.0
 11
218292.86453586339
 21
137247.0931105999
 31
0.0
  0
LINE
  5
10771
  8
0
  6
BYBLOCK
 10
218697.86453586339
 20
137247.0931105999
 30
0.0
 11
218582.86453586339
 21
137247.0931105999
 31
0.0
  0
LINE
  5
10772
  8
0
  6
BYBLOCK
 10
218582.86453586339
 20
137247.0931105999
 30
0.0
 11
218582.86453586339
 21
137187.0931105999
 31
0.0
  0
LINE
  5
1077E
  8
0
  6
BYBLOCK
 10
217343.86453586339
 20
136827.0931105999
 30
0.0
 11
217343.86453586339
 21
136967.09311059999
 31
0.0
  0
LINE
  5
10783
  8
0
  6
BYBLOCK
 10
217361.54220539311
 20
136809.4154410703
 30
0.0
 11
217443.86453586339
 21
136727.0931105999
 31
0.0
  0
LINE
  5
10786
  8
0
  6
BYBLOCK
 10
217343.86453586339
 20
136827.0931105999
 30
0.0
 11
217361.54220539311
 21
136809.4154410703
 31
0.0
  0
LINE
  5
10789
  8
0
  6
BYBLOCK
 10
217553.86453586351
 20
137027.0931105999
 30
0.0
 11
217553.86453586339
 21
137087.0931105999
 31
0.0
  0
LINE
  5
1078A
  8
0
  6
BYBLOCK
 10
217553.86453586339
 20
137087.0931105999
 30
0.0
 11
217482.86453586339
 21
137087.0931105999
 31
0.0
  0
LINE
  5
1078C
  8
0
  6
BYBLOCK
 10
217748.86453586339
 20
137087.0931105999
 30
0.0
 11
217733.86453586339
 21
137087.0931105999
 31
0.0
  0
LINE
  5
1078D
  8
0
  6
BYBLOCK
 10
217733.86453586339
 20
137087.0931105999
 30
0.0
 11
217733.86453586339
 21
137027.0931105999
 31
0.0
  0
LINE
  5
1078F
  8
0
  6
BYBLOCK
 10
217748.86453586339
 20
137247.0931105999
 30
0.0
 11
217748.86453586339
 21
137087.0931105999
 31
0.0
  0
LINE
  5
1079A
  8
0
  6
BYBLOCK
 10
217361.54220539311
 20
136984.77078012959
 30
0.0
 11
217343.86453586339
 21
136967.09311059999
 31
0.0
  0
LINE
  5
1079C
  8
0
  6
BYBLOCK
 10
217443.86453586339
 20
137067.0931105999
 30
0.0
 11
217361.54220539311
 21
136984.77078012959
 31
0.0
  0
LINE
  5
1079E
  8
0
  6
BYBLOCK
 10
217482.86453586339
 20
137087.0931105999
 30
0.0
 11
217482.86453586339
 21
137087.10311059991
 31
0.0
  0
LINE
  5
1079F
  8
0
  6
BYBLOCK
 10
217482.86453586339
 20
137087.10311059991
 30
0.0
 11
217443.86453586339
 21
137087.10311059991
 31
0.0
  0
LINE
  5
107A0
  8
0
  6
BYBLOCK
 10
217443.86453586339
 20
137087.10311059991
 30
0.0
 11
217443.86453586339
 21
137067.0931105999
 31
0.0
  0
LINE
  5
107A2
  8
0
  6
BYBLOCK
 10
218697.86453586339
 20
136859.0931105999
 30
0.0
 11
218697.86453586339
 21
137247.0931105999
 31
0.0
  0
LINE
  5
1082B
  8
0
 10
218329.86453586339
 20
135717.0931105999
 30
0.0
 11
218618.86453586339
 21
135797.0931105999
 31
0.0
  0
LINE
  5
1082C
  8
0
 10
218618.86453586339
 20
135797.0931105999
 30
0.0
 11
218907.86453586339
 21
135717.0931105999
 31
0.0
  0
LINE
  5
10834
  8
0
  6
BYBLOCK
 10
218947.86453586339
 20
135877.0931105999
 30
0.0
 11
218848.86453586339
 21
135877.0931105999
 31
0.0
  0
LINE
  5
10846
  8
0
  6
BYBLOCK
 10
217935.86453586339
 20
137247.0931105999
 30
0.0
 11
217908.86453586339
 21
137247.0931105999
 31
0.0
  0
LINE
  5
10847
  8
0
  6
BYBLOCK
 10
218056.86453586351
 20
136347.0931105999
 30
0.0
 11
218349.86453586339
 21
136347.0931105999
 31
0.0
  0
LINE
  5
10849
  8
0
  6
BYBLOCK
 10
217503.86453586351
 20
136347.0931105999
 30
0.0
 11
217916.86453586339
 21
136347.0931105999
 31
0.0
  0
LINE
  5
1084A
  8
0
  6
BYBLOCK
 10
217503.86453586339
 20
136751.94592434241
 30
0.0
 11
217503.86453586339
 21
136347.0931105999
 31
0.0
  0
LINE
  5
1084B
  8
0
  6
BYBLOCK
 10
217403.96861226429
 20
136851.84184794151
 30
0.0
 11
217503.86453586339
 21
136751.94592434241
 31
0.0
  0
LINE
  5
1084C
  8
0
  6
BYBLOCK
 10
217403.86453586339
 20
136942.0931105999
 30
0.0
 11
217403.86453586339
 21
136851.94592434229
 31
0.0
  0
LINE
  5
1084D
  8
0
  6
BYBLOCK
 10
217488.71734960581
 20
137027.0931105999
 30
0.0
 11
217403.96861226429
 21
136942.34437325841
 31
0.0
  0
LINE
  5
1084E
  8
0
  6
BYBLOCK
 10
217553.86453586339
 20
137027.0931105999
 30
0.0
 11
217488.71734960581
 21
137027.0931105999
 31
0.0
  0
LINE
  5
1084F
  8
0
  6
BYBLOCK
 10
217808.86453586339
 20
137027.0931105999
 30
0.0
 11
217733.86453586339
 21
137027.0931105999
 31
0.0
  0
LINE
  5
10850
  8
0
  6
BYBLOCK
 10
217808.86453586339
 20
137187.0931105999
 30
0.0
 11
217808.86453586339
 21
137027.0931105999
 31
0.0
  0
LINE
  5
10851
  8
0
  6
BYBLOCK
 10
217808.86453586339
 20
137187.0931105999
 30
0.0
 11
217908.86453586339
 21
137187.0931105999
 31
0.0
  0
LINE
  5
10853
  8
0
  6
BYBLOCK
 10
217908.86453586339
 20
137247.0931105999
 30
0.0
 11
217908.86453586339
 21
137247.0931105999
 31
0.0
  0
LINE
  5
10854
  8
0
  6
BYBLOCK
 10
218232.86453586351
 20
137247.0931105999
 30
0.0
 11
218205.86453586351
 21
137247.0931105999
 31
0.0
  0
LINE
  5
10855
  8
0
  6
BYBLOCK
 10
218402.86453586351
 20
137187.0931105999
 30
0.0
 11
218232.86453586351
 21
137187.0931105999
 31
0.0
  0
LINE
  5
10856
  8
0
  6
BYBLOCK
 10
218637.86453586339
 20
137187.0931105999
 30
0.0
 11
218582.86453586339
 21
137187.0931105999
 31
0.0
  0
LINE
  5
10857
  8
0
  6
BYBLOCK
 10
218637.86453586339
 20
136799.09311059999
 30
0.0
 11
218637.86453586339
 21
137187.0931105999
 31
0.0
  0
LINE
  5
10858
  8
0
  6
BYBLOCK
 10
218753.86453586339
 20
136799.09311059999
 30
0.0
 11
218637.86453586339
 21
136799.09311059999
 31
0.0
  0
LINE
  5
10859
  8
0
  6
BYBLOCK
 10
218887.86453586339
 20
136799.09311059999
 30
0.0
 11
218843.86453586351
 21
136799.09311059999
 31
0.0
  0
LINE
  5
1085A
  8
0
  6
BYBLOCK
 10
218887.86453586339
 20
135937.0931105999
 30
0.0
 11
218887.86453586339
 21
136799.09311059999
 31
0.0
  0
LINE
  5
1085B
  8
0
  6
BYBLOCK
 10
218887.86453586339
 20
135937.0931105999
 30
0.0
 11
218848.86453586339
 21
135937.0931105999
 31
0.0
  0
LINE
  5
1085C
  8
0
  6
BYBLOCK
 10
218349.86453586339
 20
135937.0931105999
 30
0.0
 11
218388.86453586351
 21
135937.0931105999
 31
0.0
  0
LINE
  5
1085D
  8
0
  6
BYBLOCK
 10
218349.86453586339
 20
135937.0931105999
 30
0.0
 11
218349.86453586339
 21
136347.0931105999
 31
0.0
  0
LINE
  5
1085F
  8
0
  6
BYBLOCK
 10
218232.86453586351
 20
137187.0931105999
 30
0.0
 11
218232.86453586351
 21
137247.0931105999
 31
0.0
  0
LINE
  5
10860
  8
0
  6
BYBLOCK
 10
217908.86453586339
 20
137247.0931105999
 30
0.0
 11
217908.86453586339
 21
137187.0931105999
 31
0.0
  0
LINE
  5
10861
  8
0
 10
217892.36453586351
 20
137307.0931105999
 30
0.0
 11
218205.86453586351
 21
137307.0931105999
 31
0.0
  0
LINE
  5
10862
  8
0
 10
218205.86453586351
 20
137247.0931105999
 30
0.0
 11
217935.86453586351
 21
137247.09311059979
 31
0.0
  0
LINE
  5
10863
  8
0
 10
217553.86453586351
 20
137027.0931105999
 30
0.0
 11
217733.86453586339
 21
137027.0931105999
 31
0.0
  0
LINE
  5
10864
  8
0
 10
217733.86453586339
 20
137087.0931105999
 30
0.0
 11
217553.86453586339
 21
137087.0931105999
 31
0.0
  0
LINE
  5
10865
  8
0
 10
218582.86453586339
 20
137187.0931105999
 30
0.0
 11
218402.86453586351
 21
137187.0931105999
 31
0.0
  0
LINE
  5
10866
  8
0
 10
218582.86453586339
 20
137247.0931105999
 30
0.0
 11
218402.86453586351
 21
137247.0931105999
 31
0.0
  0
LINE
  5
10867
  8
0
 10
218843.86453586351
 20
136799.09311059999
 30
0.0
 11
218753.86453586339
 21
136799.09311059999
 31
0.0
  0
LINE
  5
10868
  8
0
 10
218843.86453586351
 20
136859.0931105999
 30
0.0
 11
218753.86453586339
 21
136859.0931105999
 31
0.0
  0
LINE
  5
10869
  8
0
 10
218848.86453586339
 20
135937.0931105999
 30
0.0
 11
218369.36453586339
 21
135937.0931105999
 31
0.0
  0
LINE
  5
1086A
  8
0
 10
218848.86453586339
 20
135877.0931105999
 30
0.0
 11
218388.86453586351
 21
135877.0931105999
 31
0.0
  0
LINE
  5
1086B
  8
0
 10
217916.86453586339
 20
136287.0931105999
 30
0.0
 11
218056.86453586351
 21
136287.0931105999
 31
0.0
  0
LINE
  5
1086C
  8
0
 10
218056.86453586351
 20
136347.0931105999
 30
0.0
 11
217916.86453586351
 21
136347.09311059999
 31
0.0
  0
INSERT
  5
10873
  8
0
  6
CONTINUOUS
  2
*U27
 10
0.0
 20
0.0
 30
0.0
1001
ACAD
1002
{
1000
R14_HATCH_DATA
1000
10873
1011
1.0
1021
0.0
1031
0.0
1021
0.0
1031
0.0
1011
0.0
1021
0.0
1031
0.0
1021
1.0
1031
0.0
1011
0.0
1021
0.0
1031
0.0
1021
0.0
1031
1.0
1040
0.0
1010
0.0
1020
0.0
1030
1.0
1000
SOLID
1070
     1
1070
     1
1071
        1
1071
        7
1070
     0
1070
     1
1071
        4
1040
217482.86453586339
1040
137247.0931105999
1040
217443.86453586339
1040
137247.0931105999
1040
217443.86453586339
1040
137208.0931105999
1040
217482.86453586339
1040
137208.0931105999
1071
        4
1005
106FA
1005
106FB
1005
106FC
1005
106F9
1070
     0
1070
     1
1040
1.42422941039825
1071
        1
1040
217461.74021329111
1040
137212.5801111187
1040
0.0
1002
}
  0
INSERT
  5
1088B
  8
0
  6
CONTINUOUS
  2
*U28
 10
0.0
 20
0.0
 30
0.0
1001
ACAD
1002
{
1000
R14_HATCH_DATA
1000
1088B
1011
1.0
1021
0.0
1031
0.0
1021
0.0
1031
0.0
1011
0.0
1021
0.0
1031
0.0
1021
1.0
1031
0.0
1011
0.0
1021
0.0
1031
0.0
1021
0.0
1031
1.0
1040
0.0
1010
0.0
1020
0.0
1030
1.0
1000
SOLID
1070
     1
1070
     0
1071
        1
1071
        7
1070
     0
1070
     1
1071
       14
1040
217808.86453586339
1040
137187.0931105999
1040
217848.86453586339
1040
137187.0931105999
1040
217908.86453586339
1040
137187.0931105999
1040
217908.86453586339
1040
137247.0931105999
1040
217935.86453586351
1040
137247.0931105999
1040
217935.86453586339
1040
137307.0931105999
1040
217892.36453586351
1040
137307.0931105999
1040
217848.86453586339
1040
137307.0931105999
1040
217848.86453586339
1040
137247.0931105999
1040
217748.86453586339
1040
137247.0931105999
1040
217748.86453586339
1040
137087.0931105999
1040
217733.86453586339
1040
137087.0931105999
1040
217733.86453586339
1040
137027.0931105999
1040
217808.86453586339
1040
137027.0931105999
1071
        0
1070
     0
1070
     1
1040
3.6424536352282821
1071
        1
1040
217775.73271373261
1040
137086.47476602829
1040
0.0
1002
}
  0
INSERT
  5
108A2
  8
0
  6
CONTINUOUS
  2
*U29
 10
0.0
 20
0.0
 30
0.0
1001
ACAD
1002
{
1000
R14_HATCH_DATA
1000
108A2
1011
1.0
1021
0.0
1031
0.0
1021
0.0
1031
0.0
1011
0.0
1021
0.0
1031
0.0
1021
1.0
1031
0.0
1011
0.0
1021
0.0
1031
0.0
1021
0.0
1031
1.0
1040
0.0
1010
0.0
1020
0.0
1030
1.0
1000
SOLID
1070
     1
1070
     1
1071
        1
1071
        7
1070
     0
1070
     1
1071
        8
1040
218402.86453586339
1040
137247.0931105999
1040
218292.86453586339
1040
137247.0931105999
1040
218292.86453586339
1040
137307.0931105999
1040
218205.86453586351
1040
137307.0931105999
1040
218205.86453586351
1040
137247.0931105999
1040
218232.86453586339
1040
137247.0931105999
1040
218232.86453586339
1040
137187.0931105999
1040
218402.86453586351
1040
137187.0931105999
1071
        8
1005
1076F
1005
10769
1005
10766
1005
10767
1005
10854
1005
1085F
1005
10855
1005
1076E
1070
     0
1070
     1
1040
3.6424536352282821
1071
        1
1040
218293.26863207229
1040
137239.4578416014
1040
0.0
1002
}
  0
INSERT
  5
108B9
  8
0
  6
CONTINUOUS
  2
*U30
 10
0.0
 20
0.0
 30
0.0
1001
ACAD
1002
{
1000
R14_HATCH_DATA
1000
108B9
1011
1.0
1021
0.0
1031
0.0
1021
0.0
1031
0.0
1011
0.0
1021
0.0
1031
0.0
1021
1.0
1031
0.0
1011
0.0
1021
0.0
1031
0.0
1021
0.0
1031
1.0
1040
0.0
1010
0.0
1020
0.0
1030
1.0
1000
SOLID
1070
     1
1070
     1
1071
        1
1071
        7
1070
     0
1070
     1
1071
        8
1040
218637.86453586339
1040
137187.0931105999
1040
218637.86453586351
1040
136799.09311059999
1040
218753.86453586339
1040
136799.09311059999
1040
218753.86453586339
1040
136859.0931105999
1040
218697.86453586339
1040
136859.0931105999
1040
218697.86453586339
1040
137247.0931105999
1040
218582.86453586339
1040
137247.0931105999
1040
218582.86453586351
1040
137187.0931105999
1071
        8
1005
10771
1005
10772
1005
10856
1005
10857
1005
10858
1005
1073A
1005
1073B
1005
107A2
1070
     0
1070
     1
1040
3.6424536352282821
1071
        1
1040
218657.73050199871
1040
137188.46353739311
1040
0.0
1002
}
  0
INSERT
  5
108D0
  8
0
  6
CONTINUOUS
  2
*U31
 10
0.0
 20
0.0
 30
0.0
1001
ACAD
1002
{
1000
R14_HATCH_DATA
1000
108D0
1011
1.0
1021
0.0
1031
0.0
1021
0.0
1031
0.0
1011
0.0
1021
0.0
1031
0.0
1021
1.0
1031
0.0
1011
0.0
1021
0.0
1031
0.0
1021
0.0
1031
1.0
1040
0.0
1010
0.0
1020
0.0
1030
1.0
1000
SOLID
1070
     1
1070
     0
1071
        1
1071
        7
1070
     0
1070
     1
1071
        8
1040
218947.86453586339
1040
136859.0931105999
1040
218843.86453586351
1040
136859.0931105999
1040
218843.86453586351
1040
136799.09311059999
1040
218887.86453586339
1040
136799.09311059999
1040
218887.86453586339
1040
135937.0931105999
1040
218848.86453586339
1040
135937.0931105999
1040
218848.86453586339
1040
135877.0931105999
1040
218947.86453586339
1040
135877.0931105999
1071
        0
1070
     0
1070
     1
1040
3.6424536352282821
1071
        1
1040
218912.85386826011
1040
136711.30208244899
1040
0.0
1002
}
  0
INSERT
  5
108E8
  8
0
  6
CONTINUOUS
  2
*U32
 10
0.0
 20
0.0
 30
0.0
1001
ACAD
1002
{
1000
R14_HATCH_DATA
1000
108E8
1011
1.0
1021
0.0
1031
0.0
1021
0.0
1031
0.0
1011
0.0
1021
0.0
1031
0.0
1021
1.0
1031
0.0
1011
0.0
1021
0.0
1031
0.0
1021
0.0
1031
1.0
1040
0.0
1010
0.0
1020
0.0
1030
1.0
1000
SOLID
1070
     1
1070
     0
1071
        1
1071
        7
1070
     0
1070
     1
1071
       11
1040
218349.86453586339
1040
136347.09311059999
1040
218056.86453586351
1040
136347.0931105999
1040
218056.86453586351
1040
136287.0931105999
1040
218289.86453586339
1040
136287.0931105999
1040
218289.86453586339
1040
136062.76086637759
1040
218289.86453586339
1040
135877.0931105999
1040
218388.86453586351
1040
135877.0931105999
1040
218388.86453586351
1040
135937.0931105999
1040
218369.36453586339
1040
135937.0931105999
1040
218349.86453586339
1040
135937.0931105999
1040
218349.86453586339
1040
136086.0931105999
1071
        0
1070
     0
1070
     1
1040
3.6424536352282821
1071
        1
1040
218267.7562667898
1040
136325.20193157639
1040
0.0
1002
}
  0
INSERT
  5
10900
  8
0
  6
CONTINUOUS
  2
*U33
 10
0.0
 20
0.0
 30
0.0
1001
ACAD
1002
{
1000
R14_HATCH_DATA
1000
10900
1011
1.0
1021
0.0
1031
0.0
1021
0.0
1031
0.0
1011
0.0
1021
0.0
1031
0.0
1021
1.0
1031
0.0
1011
0.0
1021
0.0
1031
0.0
1021
0.0
1031
1.0
1040
0.0
1010
0.0
1020
0.0
1030
1.0
1000
SOLID
1070
     1
1070
     0
1071
        1
1071
        7
1070
     0
1070
     1
1071
       23
1040
217916.86453586351
1040
136347.0931105999
1040
217530.3781717949
1040
136347.0931105999
1040
217503.86453586339
1040
136347.0931105999
1040
217503.86453586339
1040
136751.94592434241
1040
217403.86453586339
1040
136851.94592434241
1040
217403.86453586351
1040
136942.24029685761
1040
217488.71734960581
1040
137027.0931105999
1040
217553.86453586351
1040
137027.0931105999
1040
217553.86453586351
1040
137087.0931105999
1040
217482.86453586339
1040
137087.0931105999
1040
217482.86453586339
1040
137087.10311059991
1040
217443.86453586339
1040
137087.10311059991
1040
217443.86453586351
1040
137067.09311059999
1040
217361.54220539311
1040
136984.77078012959
1040
217343.86453586339
1040
136967.09311059999
1040
217343.86453586339
1040
136942.0931105999
1040
217343.86453586339
1040
136827.0931105999
1040
217361.54220539311
1040
136809.4154410703
1040
217443.86453586339
1040
136727.0931105999
1040
217443.86453586339
1040
136641.0931105999
1040
217443.86453586339
1040
136287.0931105999
1040
217550.86453586339
1040
136287.0931105999
1040
217916.86453586339
1040
136287.0931105999
1071
        0
1070
     0
1070
     1
1040
3.6424536352282821
1071
        1
1040
217615.36947950241
1040
136310.63216529161
1040
0.0
1002
}
  0
LINE
  5
10B2F
  8
0
 10
216943.86453586339
 20
137707.0931105999
 30
0.0
 11
219347.86453586339
 21
137707.0931105999
 31
0.0
  0
LINE
  5
10B30
  8
0
 10
219347.86453586339
 20
137707.0931105999
 30
0.0
 11
219347.86453586339
 21
135477.0931105999
 31
0.0
  0
LINE
  5
10B31
  8
0
 10
219347.86453586339
 20
135477.0931105999
 30
0.0
 11
216943.86453586339
 21
135477.0931105999
 31
0.0
  0
LINE
  5
10B32
  8
0
 10
216943.86453586339
 20
135477.0931105999
 30
0.0
 11
216943.86453586339
 21
137707.0931105999
 31
0.0
  0
LINE
  5
10B33
  8
0
 10
218663.86453586339
 20
137483.23076364791
 30
47.0
 11
218663.86453586339
 21
137247.0931105999
 31
47.0
  0
LINE
  5
10B34
  8
0
 10
218663.86453586339
 20
137247.0931105999
 30
47.0
 11
218683.86453586339
 21
137247.0931105999
 31
47.0
  0
LINE
  5
10B35
  8
0
 10
218683.86453586339
 20
137247.0931105999
 30
47.0
 11
218683.86453586339
 21
137483.230763648
 31
47.0
  0
LINE
  5
10B36
  8
0
 10
218683.86453586339
 20
137483.230763648
 30
47.0
 11
218663.86453586339
 21
137483.23076364791
 31
47.0
  0
LINE
  5
10B37
  8
0
 10
218255.06521263739
 20
137594.1417043285
 30
-13.0
 11
218235.3701398964
 21
137516.60394507711
 31
-13.0
  0
LINE
  5
10B38
  8
0
 10
218235.3701398964
 20
137516.60394507711
 30
-13.0
 11
218254.69801808099
 21
137511.45749876459
 31
-13.0
  0
LINE
  5
10B39
  8
0
 10
218254.69801808099
 20
137511.45749876459
 30
-13.0
 11
218269.4729701801
 21
137569.62517825869
 31
-13.0
  0
ARC
  5
10B3A
  8
0
 10
-218021.09479052341
 20
136672.95199699511
 30
13.0
 40
930.43780776946164
210
0.0
220
0.0
230
-1.0
 50
105.4827142371023
 51
120.8247869812012
  0
LINE
  5
10B3B
  8
0
 10
218497.86453586351
 20
137471.9545777514
 30
-13.0
 11
218497.86453586351
 21
137403.23076364791
 31
-13.0
  0
LINE
  5
10B3C
  8
0
 10
218497.86453586351
 20
137403.23076364791
 30
-13.0
 11
218517.86453586339
 21
137403.23076364791
 31
-13.0
  0
LINE
  5
10B3D
  8
0
 10
218517.86453586339
 20
137403.23076364791
 30
-13.0
 11
218517.86453586339
 21
137483.230763648
 31
-13.0
  0
ARC
  5
10B3E
  8
0
 10
218021.0882496096
 20
136672.93999570841
 30
-13.0
 40
950.45137024059795
 50
58.488205622345689
 51
75.748741864206565
  0
ARC
  5
10B3F
  8
0
 10
218021.03143442629
 20
136672.7714210125
 30
47.0
 40
950.62874368267967
 50
113.0495212242204
 51
148.99233937300119
  0
LINE
  5
10B40
  8
0
 10
217206.2490299214
 20
137162.4903624728
 30
47.0
 11
217220.83335948241
 21
137147.90603291171
 31
47.0
  0
ARC
  5
10B41
  8
0
 10
-218021.0314344262
 20
136672.7714210125
 30
-47.0
 40
930.62874368265966
210
0.0
220
0.0
230
-1.0
 50
30.700622763632818
 51
65.719049138568508
  0
LINE
  5
10B42
  8
0
 10
217638.34635895089
 20
137521.07678559341
 30
47.0
 11
217661.8437547861
 21
137465.8531444945
 31
47.0
  0
LINE
  5
10B43
  8
0
 10
217661.8437547861
 20
137465.8531444945
 30
47.0
 11
217680.15713775571
 21
137473.8950838735
 31
47.0
  0
LINE
  5
10B44
  8
0
 10
217680.15713775571
 20
137473.8950838735
 30
47.0
 11
217648.8350111529
 21
137547.50842767119
 31
47.0
  0
LINE
  5
10B45
  8
0
  6
BYBLOCK
 10
218329.86453586339
 20
135797.0931105999
 30
47.0
 11
218329.86453586339
 21
135717.0931105999
 31
47.0
  0
LINE
  5
10B46
  8
0
  6
BYBLOCK
 10
218329.86453586339
 20
135717.0931105999
 30
47.0
 11
218907.86453586339
 21
135717.0931105999
 31
47.0
  0
LINE
  5
10B47
  8
0
  6
BYBLOCK
 10
218907.86453586339
 20
135717.0931105999
 30
47.0
 11
218907.86453586339
 21
135797.0931105999
 31
47.0
  0
LINE
  5
10B48
  8
0
  6
BYBLOCK
 10
218907.86453586339
 20
135797.0931105999
 30
47.0
 11
218329.86453586339
 21
135797.0931105999
 31
47.0
  0
ENDSEC
  0
EOF
